GuitarraViva aterriza en LaCuerda
Guitarra 1:

ESTRIBILLOS:

FRASE 1:                   FRASE 2:
e--0-0-----0-1-0-------     e---------------------
B------1-3-------3-1-0-     B--1-1---0-1-3-1-0----
G----------------------     G------2-----------2-0
D----------------------     D---------------------

FRASE 3:              FRASE 4:
e--------1-0----       e----0-1-0----------------
B----0-1------1        B--3-------3-1-3--1-1-0-1-
G--2------------       G-------------------------
D---------------       D-------------------------


PUENTE QUE UNE ESTRIBILLOS CON ESTROFA 1:

e----4-3------------6-4-3---------
B--1-----6-4-3-4--3-------6-4-6-5-
G---------------------------------
D---------------------------------


ESTROFA 1:

FRASE 1:                       FRASE 2:
e-------------------------       e---------------------------
B----1-1-1-1-1-------1----       B---------------------------
G--------------3-1-3---3--       G----3-3-3-3-3-3-1-0-1-3-1--
D--3----------------------       D--2------------------------

FRASE 3:                         FRASE 4:
e----------------------------     e----------
B----------------------------     B--------1--
G----1-1-1-1-0-0-----0-----0-     G--0-1-3----
D--0-------------3-3---1-3---     D-----------

FRASE 5:                     FRASE 6:
e-------------------------     e-----------------------
B----1-1-1-1-1-------1----     B------1-3-3-4----------
G--------------3-1-3---3--     G--3-3---------3-1-0-1--
D--3----------------------     D-----------------------

FRASE 7:
e----------------3-1-1-1--------
B------------------------4-3-4--
G--1-3-1-0-0-0-0----------------
D-------------------------------


ESTROFA 2:

FRASE 1:               FRASE 2:
e-------------------     e----1---------------------
B--1-3-4-4-1-4-4-1-4     B--1--4-3-1-1--------------
G-------------------     G-------------3-0-3-3-0-3-3
D-------------------     D--------------------------

FRASE 3:               FRASE 4:
e-----------------       e------------3-1-1-1---1-3--
B------1-3-4-4-1--       B--4-3-4-1-1---------4------
G--0-3------------       G---------------------------
D-----------------       D---------------------------




Guitarra 2:

Intro: Gadd4  (+) e----------------
                  B----------------
                  G--0---0---0---0-
                  D----3---2---0---

ESTRIBILLO:

C G Tu sonrisa tan resplandeciente
Am Em E7 A mi corazón deja encantado
F C Am Ven toma mi mano
A# G G#-A#-C Para huir de esta terrible oscuridad. ESTROFA 1: e----------------------------- B--1-0-1---1---1---1---1---1-- G--------2---0---------------- D----------------3---2---0----
Fm A# Gm En el instante en que te volví a encontrar
Cm Fm Mi mente trajo a mí aquel hermoso lugar
G7 Cm C7 Que cuando era niño fue tan valioso para mi.
G# A# Gm Quiero saber si acaso tú conmigo quieres bailar
Cm Fm Si me das tu mano te llevare
G7 Cm D# Por un camino cubierto de luz y oscuridad. ESTROFA 2:
G# Gm Tal vez sigues pensando en el no puedo yo saberlo
Cm Pero se que entiendo que amor necesitas tu
Fm A# G Y el valor para pelear, en mi lo hallaras. ESTRIBILLO 2: e---------------- B---------------- G--0---0---0---0- D----3---2---0---
C G Mi corazón encantado vibra
Am Em E7 Por el polvo de esperanza y magia
F C Am A# Am G Del universo que ambicionan todos poseer.
C G Voy a amarte para toda la vida
Am Em E7 No me importa si aun no te intereso
F C Am A# G G#-A#-Csus4-C Ven toma mi mano para huir de esta infinita oscuridad. El acorde de Gadd4 es de la siguiente manera: e--3--
B--1--
G--0--
D--0--
A--2--
E--3-- Espero que les guste.. Es una versión hecha por TCDG...
This file is the work if its transcriptor and it represents his/her own interpretation of the song. This material is intended for PERSONAL USE ONLY. It is strictly forbiden to copy, reproduce or retransmit the contents of this website. Legal actions will be taken if required.
© LaCuerda.net · legal notice · privacy · es · en · pt · contact us