Guitar Chords » M »Música de Películas » La Pantera Rosa (Tab)

La Pantera Rosa
Música de Películas

Lyrics, Chords & Tabs for Guitar, Bass & Ukulele

  • 1/--------------------|----|---------------|
    2/--------------------|----|---------------|
    3/--------------------|-3x-|---------------|
    4/-6/7-8/9------------|----|--9/8-7/6------|
    5/-4/5-6/7------------|----|--7/6-5/4---3--|
    6/---------0-7-7-0-0--|----|----------3----|
    
    
    1/---------------------8-7-----7-6--|-5-3-----------|----|
    2/---------7-8-----7-8-----7-8------|-----5-3-3/5-5-|----|
    3/-------------8-9------------------|---------------|-2x-|
    4/-6/7-8/9--------------------------|---------------|----|
    5/-4/5-6/7--------------------------|---------------|----|
    6/----------------------------------|---------------|----|
    
    
    1/---------------------8-7-----12-11-|
    2/---------7-8-----7-8-----7-8-------|
    3/-------------8-9-------------------|
    4/-6/7-8/9---------------------------|
    5/-4/5-6/7---------------------------|
    6/-----------------------------------|
    
    
    1/---------10/12-10----------------------------------------------------|
    2/------------------12-10------10/11/10--10/11/10--10/11/10--10
  • E-------------------------------------------------------------------------
    B-------------------------------------------------------------3-4---6-7---
    G-------------------------------------------------------------------------
    D--x-x---6-7--8-9------6-7--8-9------8-7--6-5------6-7--8-9---------------
    A--x-x---4-5--6-7------4-5--6-7------6-5--4-3------4-5--6-7---------------
    D-------------------------------------------------------------------------
    
    E-------------------------8-7-----7-6------5-3----------------------------
    B--3-4----6-7---3-4-6-7-------4-7--------------5-3-4--(4)-----------------
    G-------------------------------------------------------------------------
    D-------------------------------------------------------------------------
    A-------------------------------------------------------------------------
    D-------------------------------------------------------------------------
    
    E------------------------8-7------7-12-11---------------------------------
    B--3-4----6-7---3-4-6-7
  • 1------/------------------------/-----------------
    2------/------------------------/-----------------
    3------/------------------------/-----------------
    4------/------------------------/------------3--2--------2
    5------/----0-------2--3--------/---0--2--3--------0--3---
    6--0---/----------------------0-/------------------
    
    
    1-----------------------/------------------------
    2-----------------------/------------------------
    3-----------------------/------------------------
    4-1-------0-------------/-------------------------
    5------------3-0----0---/---0---------------------
    6----------------3------/---------------0---------
    
    
    1-------------------------/----------------------
    2-------------------------/----------------------
    3-------------------------/-----------------------2
    4-------------------------/-----------3--2-----2----
    5--0--------2---3---------/--0--2--3--------3-------
    6----------------------0--/-----------------------
    
    1--------/------------/----------------------------
    2-------
  • G-----------|------------|
    D-----------|------------|
    A-4-5-6-7---|-4-5-6-7----|
    E--------7-0|--------7-0-|
    
    G---------------|-----------------------|
    D---------------|---------10-9------9-8-|
    A-4-5-6-7--9-10-|-6s7-9-10-----7-10-----|
    E---------------|-----------------------|
    
    G----------|---------------|------------------9-8|
    D-7-5------|---------------|---------10-9--------|
    A----7-5-7-|-4-5-6-7--9-10-|-6s7-9-10-----7-10---|
    E----------|---------------|---------------------|
    
    G-9-7------------------------|---------|--------|
    D----9-7-5---8s7-8s7-8s7-8s7-|-5-------|-5------|
    A----------7-----------------|---7-5-7-|--7-5-7-|
    E----------------------------|---------|--------|
    
    bueno espero que les sirva
  • Ritmo: JAZZ LENTO
    Compas: 4 tiempos
    
               MIm
    do# re re# mi
    do# re re# mi do# re re# mi  fa# sol
    re# mi fa# sol Do si mi sol
    DO7
    si sib la fa# mi re mi
              Mim
    do# re re# mi     fa# sol
                                   FA7
    re# mi fa# sol Do si sol si Mi Re#
              MIm
    do# re re# mi    fa# sol
                                    DO7
    re# mi fa# sol Do si mi  sol si sib la fa# mi re mi
              MIm
    do# re re# mi
    
                       DO7                MIm
    Mi Re si la sol mi sib sib sib sib sol mi re mi mi
    SOLm
    Fa# sol   la si Do# Re Fa Do# si sol si do la sol
    la sol si Do# Re# Do si Do sib sol fa re re re re re
                 DO7
    do si la sol fa# sol mi sol sib Do# Do# si sol
                                        FAm
    si sol Do Do# Do# Do# Do# Do si sol fa
       Do7       Sib7      MIm
    re sol si si fa# la la sol
    
    do# re re# mi do# re re# mi  fa# sol
                                    DO7
    re# mi fa# sol Do si mi  sol si sib la fa# mi re mi
    
    
               MIm
    do# re re# mi    fa# sol
              
  • +
    ¡Colabora con nosotros!
    Envíanos tu versión de esta canción
  • Tutorial
    HD
    Como tocar la Pantera ROSA en guitarra
    4:55
  • Tutorial
    como tocar LA PANTERA ROSA en guitarra FACIL Principiantes y novatos acústica o criolla tutorial
    6:02






[La Pantera Rosa acordes][La Pantera Rosa cifra]
© LaCuerda.net · legal notice · privacy · es · en · pt · contact us
DINAMICO