Tab of Los Mirlos: Poder Verde
Los Mirlos  corregir
desconocido
Hola q tal, soy Lualanmi, y aquí les traigo
algo de Los Mirlos, no es mucho, pero en algo debe de servirles.
Es que no me dio tiempo para sacar los acordes.
Cualquier me la hacen llegar a Youtube:

Salu2





1|--10h11p10-----10h11p10-----...-------10-----------|
2|----------11------------11------------11-----------|
3|---------------------------------------------------|
4|---------------------------------------------------|
5|---------------------------------------------------|
6|---------------------------------------------------|



1|10-.-9---------------------------------------------------------------|
2|13b.---9.-14--------11-13-14.-13h14p13--11h13p11-11-14p13-11-11b-...-|
3|-------------13.-/13-------------------------------------------------|
4|---------------------------------------------------------------------|
5|---------------------------------------------------------------------|
6|---------------------------------------------------------------------|



1|-----10-12-13-12-11-10--13-12-11-10.------------------------------------|
2|-/13--------------------------------------------------------------------|
3|------------------------------------------------------------------------|
4|------------------------------------------------------------------------|
5|------------------------------------------------------------------------|
6|------------------------------------------------------------------------|



1|--h13-13-13-11.-10-9-10-9.--7h9p7---7-----|
2|---------------------------------10-------|
3|------------------------------------------|
4|------------------------------------------|
5|------------------------------------------|
6|------------------------------------------|



1|--9---9--9-----9----7-------------------------------------|
2|--12b------------9----9-9---------------------------------|
3|----------------------------------------------------------|
4|----------------------------------------------------------|
5|----------------------------------------------------------|
6|----------------------------------------------------------|



1|----------------13.--12-11--13-12-11-10--h13-13-13-12.-----|
2|--/9--12-13-14---------------------------------------------|
3|-----------------------------------------------------------|
4|-----------------------------------------------------------|
5|-----------------------------------------------------------|
6|-----------------------------------------------------------|



1|--11-10-10-9h10p9-9-h10-10-10-10-....-10b-10b-10b-10x-|
2|------------------------------------------------------|
3|------------------------------------------------------|
4|------------------------------------------------------|
5|------------------------------------------------------|
6|------------------------------------------------------|



1|--14T--13T--12T--11T--10T-9T-8T...-----------------|
2|---------------------------------------------------|
3|---------------------------------------------------|
4|---------------------------------------------------|
5|---------------------------------------------------|
6|---------------------------------------------------|
This file is the work if its transcriptor and it represents his/her own interpretation of the song. This material is intended for PERSONAL USE ONLY. It is strictly forbiden to copy, reproduce or retransmit the contents of this website. Legal actions will be taken if required.
© LaCuerda.net · legal notice · privacy · es · en · pt · contact us