Tab of Los Mirlos: La danza del petrolero
Los Mirlos del peru
desconocido [1973]
Introducción:


e|-------------------------------------------|
b|-------------------------------------------|
g|---0---0----------------1---0--------------|
d|--2---0----------------2---0---------------|
a|-3---2---0-0-0-0-3-0--3---2---0-0-0-0-0----|
e|-------------------------------------------|    X2

Solo:

Moderado:

e|--0--0-0---------------0-|--0--0-0------------------|
b|-1-------3--1-3-1--3--1--|-1-------3--1-3-1--3------|
g|---------------------2---|---------------------2-2--|
d|-------------------------|----------------------2---|
a|-------------------------|--------------------------|
e|----------------------------------------------------|    X2

Rápido:

e|------3>5-0-5-0-5-0-3-0---------0--0>3-3-3-3>5-3-0---------|
b|--1-1------------------2------1-------------------3-1------|
g|-2---------------------------2-----------------------2-----|
d|-----------------------------------------------------------|
a|-----------------------------------------------------------|
e|-----------------------------------------------------------|    X2

e|---------------------------------0-0>3-0-0-0>3-0-0---------|
b|-----0--1-1-1--3-3-3-3--0-------------------------3-1------|
g|----2--------------------1------1--------------------2-----|
d|---2-----------------------2---2---------------------------|
a|-----------------------------------------------------------|
e|-----------------------------------------------------------|     X2

e|------10>12-7-12-7-12-7-10-7------7--7>10-10-10-10>12-10-7------|
b|--8-8-----------------------9----8------------------------10-8--|
g|-9------------------------------9-----------------------------9-|
d|----------------------------------------------------------------|
a|----------------------------------------------------------------|
e|----------------------------------------------------------------| X2

e|-------------------------------------7-7>10-7-7-7>10-7-7-------|
b|----7--8-8-8--10-10-10-10--7----------------------------10-8---|
g|---9------------------------8------8------------------------9--|
d|--9--------------------------9----9----------------------------|
a|---------------------------------------------------------------|
e|---------------------------------------------------------------| X2





Moderado:

e|----------4------------5--------------4-4-----------------|
b|--3-3--5-5-5---3-3--5-5-5----3-3--5-5--5-5-5-5-3>1-1------|
g|-5------------5-------------5-----------------------2-----|
d|----------------------------------------------------------|
a|----------------------------------------------------------|
e|----------------------------------------------------------|    X2

Salida/Moderado:

e|---4---4---4--5-5--------------|
b|--5---5---5-5------------------|
g|-4---4---4---------------------|
d|-------------------------------|
a|-------------------------------|
e|-------------------------------|    X………. veces


Se repite todo de nuevo…….


Saludos para los que gustan de esta música
Cualquier correcion o comentario enviarlo al email:
David_oso17@hotmail.com, gracias
This file is the work if its transcriptor and it represents his/her own interpretation of the song. This material is intended for PERSONAL USE ONLY. It is strictly forbiden to copy, reproduce or retransmit the contents of this website. Legal actions will be taken if required.
© LaCuerda.net · legal notice · privacy · es · en · pt · contact us