Tab of Los Mirlos: La danza de los mirlos
Los Mirlos  corregir
Grandes Exitos
Hola como están todo ustedes, soy Lualanmi(Luis Anto)
y bueno, otra vez, como siempre subiendo tabs a esta
gran web.

Cualquier duda me la hacen llegar a mi facebook


Saludos para mi amigos del alma en quien confío a ciegas:


Manuel C., Elver C., David C., Jhon M., Manfredo, Germán C.,
Jhonny, Yerson, Marylin, Fiorela Stefany, Raquel,Carol
Alisson, Sara, Mercedes, Saskya, Israel, Franklin, Raúl,
Pedro y su enamorada, Videl, Midel, Yordan, Alan, Mario P.,
etc etc,


hay más, pero es para la proxima XD




Chulucanas-Piura-Perú.........


lacuerda, la mejor web d Guitar y acordes
________________________________
Aki dejo un video como ejemplo:



http://www.youtube.com/watch?v=O0Aj5ohTRyo



Damas Gratis

1|-------------------------------------
2|-------------------------------------
3|-------------------------------------
4|-------------0h2--2-2-2-2---0h2p0----
5|--0-0-0-0-3---------------2----------
6|-------------------------------------


1|-------------------------------------
2|-------------------------------------
3|-------------------------------------
4|-------------0h2--2-2-2-2---0h2p0----
5|--0-0-0-0-3---------------2----------
6|-------------------------------------



1|-------------------------------------
2|-------------------------------------
3|-------------------------------------
4|-------------0h2--2-2-2-2---0h2p0----
5|--0-0-0-0-3---------------2----------
6|-------------------------------------



1|-------------------------------------
2|-------------------------------------
3|-------------------------------------
4|-------------0h2--2-2-2-2---0h2p0----
5|--0-0-0-0-3---------------2-------0--
6|-------------------------------------

1|-------0-0-0-3-----------------------
2|-----1----------0-3h0---1------------
3|---2------------------2--------------
4|-------------------------------------
5|-------------------------------------
6|-------------------------------------


1|-------0-0-0-3-----------------------
2|-----1----------0-3h0---1------------
3|---2------------------2--------------
4|-------------------------------------
5|-------------------------------------
6|-------------------------------------




1|------0--3-2-1-0------------------------
2|----1--------------3-1-0--3-1-0----1----
3|--2------------------------------2------
4|----------------------------------------
5|----------------------------------------
6|----------------------------------------


1|------0--3-2-1-0------------------------
2|----1--------------3-1-0--3-1-0----1----
3|--2------------------------------2------
4|----------------------------------------
5|----------------------------------------
6|----------------------------------------


1|------0--3-2-1-0------------------------
2|----1--------------3-1-0--3-1-0----1----
3|--2------------------------------2------
4|----------------------------------------
5|----------------------------------------
6|----------------------------------------


1|------0--3-2-1-0------------------------
2|----1--------------3-1-0--3-1-0---------
3|--2------------------------------2h0----
4|----------------------------------------(Aquí cambia)
5|----------------------------------------
6|----------------------------------------


Aquí se repite la intro,
pero al empezar cambia un poco como ven:

1|----------------------------------------------------
2|----------------------------------------------------
3|----------------------------------------------------
4|-----0h2-2-2-2-2---0h2p0----------------------------
5|-0h3-------------2----------------------------------
6|----------------------------------------------------


1|-------------------------------------
2|-------------------------------------
3|-------------------------------------
4|-------------0h2--2-2-2-2---0h2p0----
5|--0-0-0-0-3---------------2----------
6|-------------------------------------


1|-------------------------------------
2|-------------------------------------
3|-------------------------------------
4|-------------0h2--2-2-2-2---0h2p0----
5|--0-0-0-0-3---------------2----------
6|-------------------------------------



1|--------------------------------------
2|--------------------------------------
3|--------------------------------------
4|-------------0h2--2-2-2-2---0h2p0-----
5|--0-0-0-0-3---------------2--------0--
6|--------------------------------------



1|-------0-0-0-3-----------------------
2|-----1----------0-3h0---1------------
3|---2------------------2--------------
4|-------------------------------------
5|-------------------------------------
6|-------------------------------------


1|-------0-0-0-3-----------------------
2|-----1----------0-3h0---1------------
3|---2------------------2--------------
4|-------------------------------------
5|-------------------------------------
6|-------------------------------------




1|------0--3-2-1-0------------------------
2|----1--------------3-1-0--3-1-0----1----
3|--2------------------------------2------
4|----------------------------------------
5|----------------------------------------
6|----------------------------------------


1|------0--3-2-1-0------------------------
2|----1--------------3-1-0--3-1-0----1----
3|--2------------------------------2------
4|----------------------------------------
5|----------------------------------------
6|----------------------------------------


1|------0--3-2-1-0------------------------
2|----1--------------3-1-0--3-1-0---------
3|--2------------------------------2/9-...
4|----------------------------------------
5|----------------------------------------
6|----------------------------------------



1|-------8-10/12-12-12-12----108----8----
2|----10------------------12------10------
3|--9-------------------------------------
4|----------------------------------------
5|----------------------------------------
6|----------------------------------------



1|-------8-10/12-12-12-12----108----8----
2|----10------------------12------10------
3|--9-------------------------------------
4|----------------------------------------
5|----------------------------------------
6|----------------------------------------



1|-------8-10/12-12-12-12----108----8----
2|----10------------------12------10------
3|--9-------------------------------------
4|----------------------------------------
5|----------------------------------------
6|----------------------------------------





1|-------8-10/12-12-12-12----108---------
2|----10------------------12------10-----
3|--9-------------------------------------
4|----------------------------------------
5|----------------------------------------
6|----------------------------------------




1|--------------------------
2|-----5--------------------
3|-----5----------------4...
4|---7----75---5-5-5-5-----
5|--------------------------
6|--------------------------


1|----------------------------------------
2|----------------5-----------------------
3|----------------5---------------4-------
4|--5-5/7--7-7-7----75---5-5-5-5---------
5|----------------------------------------
6|----------------------------------------


1|----------------------------------------
2|----------------5-----------------------
3|----------------5---------------4-------
4|--5-5/7--7-7-7----75---5-5-5-5---------
5|----------------------------------------
6|----------------------------------------



1|--------------------------------------------
2|----------------5---------------------------
3|----------------5---------------4-----------
4|--5-5/7--7-7-7----75---5-5-5-5----5/7--7---
5|--------------------------------------------
6|--------------------------------------------




1|-----5---------3-3-3---3--3/5--5-5---5--------------
2|---5--53------------3---3---------5---53----------
3|----------------------------------------------------
4|----------------------------------------------------
5|----------------------------------------------------
6|----------------------------------------------------



1|---3-3-3---3--3/5--5-5---5------------------
2|---------3---3---------5---53--------------
3|----------------------------------------------------
4|----------------------------------------------------
5|----------------------------------------------------
6|----------------------------------------------------




1|---3-3-3---3--3/5--5-5---5--------------------------
2|---------3---3---------5---53----------------------
3|----------------------------------------------------
4|----------------------------------------------------
5|----------------------------------------------------
6|----------------------------------------------------




1|---3-3-3---3------5--------------------------------
2|---------3---3/5--5--------------------------------
3|----------------------------------------------------
4|----------------------------------------------------
5|----------------------------------------------------
6|----------------------------------------------------






















Danza del Petrolero

1|-----------------------------------------------------------
2|-----------------------------------------------------------
3|------0-----0--------------------------0-----0-------------
4|----2-----2--------------------------2-----2---------------(2 veces)
5|--3-----2-----0-0-0-0-3-0----------3-----2-----0-0-0-0-0---
6|-----------------------------------------------------------


1|----0-0-0-0-----------------0-3----
2|--1---------3---1-3-1-----1--------
3|------------------------2----------
4|-----------------------------------
5|-----------------------------------
6|-----------------------------------



1|----0-0-0-0------------------------
2|--1---------3---1-3-1-----1--------
3|------------------------2---2------
4|-----------------------------------
5|-----------------------------------
6|-----------------------------------




1|----0-0-0-0-----------------0-3----
2|--1---------3---1-3-1-----1--------
3|------------------------2----------
4|-----------------------------------
5|-----------------------------------
6|-----------------------------------



1|----0-0-0-0------------------------
2|--1---------3---1-3-1-----1--------
3|------------------------2---2------
4|-----------------------------------
5|-----------------------------------
6|-----------------------------------




1|------0-3/5---0-5-0-5-0-3-0-------
2|----1-----------------------1-----
3|--2-------------------------------
4|----------------------------------
5|----------------------------------
6|----------------------------------


1|------0-0h3-3-3-3/5-3-0-----------
2|----1-------------------3-1-------
3|--2-------------------------2-----
4|----------------------------------
5|----------------------------------
6|----------------------------------



1|------0-3/5---0-5-0-5-0-3-0-------
2|----1-----------------------1-----
3|--2-------------------------------
4|----------------------------------
5|----------------------------------
6|----------------------------------


1|------0-0h3-3-3-3/5-3-0-----------
2|----1-------------------3-1-------
3|--2-------------------------2-----
4|----------------------------------
5|----------------------------------
6|----------------------------------




1|----0-0-0-0-----------------0-3----
2|--1---------3---1-3-1-----1--------
3|------------------------2----------
4|-----------------------------------
5|-----------------------------------
6|-----------------------------------



1|----0-0-0-0------------------------
2|--1---------3---1-3-1-----1--------
3|------------------------2---2------
4|-----------------------------------
5|-----------------------------------
6|-----------------------------------




1|-------------------------------
2|------0-1-1-1-1-3-3-3-3-0------
3|----2---------------------1----
4|--2-------------------------2--
5|-------------------------------
6|-------------------------------


1|------0-0h3---0-0-0h3--0-0--------
2|---------------------------3-1----
3|----1--------------------------2--
4|--2-------------------------------
5|----------------------------------
6|----------------------------------



1|-------------------------------
2|------0-1-1-1-1-3-3-3-3-0------
3|----2---------------------1----
4|--2-------------------------2--
5|-------------------------------
6|-------------------------------


1|------0-0h3---0-0-0h3--0-0--------
2|---------------------------3-1----
3|----1--------------------------2--
4|--2-------------------------------
5|----------------------------------
6|----------------------------------



1|--------12-15/17--12-17-12-17-12-15-12------
2|-----13--------------------------------13---
3|--14----------------------------------------
4|--------------------------------------------
5|--------------------------------------------
6|--------------------------------------------



1|--------12-12h15-15-15-15/17-15-12------------
2|-----13----------------------------15-13------
3|---14------------------------------------14---
4|----------------------------------------------
5|----------------------------------------------
6|----------------------------------------------


1|--------12-15/17--12-17-12-17-12-15-12------
2|-----13--------------------------------13---
3|--14----------------------------------------
4|--------------------------------------------
5|--------------------------------------------
6|--------------------------------------------



1|--------12-12h15-15-15-15/17-15-12------------
2|-----13----------------------------15-13------
3|---14------------------------------------14---
4|----------------------------------------------
5|----------------------------------------------
6|----------------------------------------------


1|----------------------------------------------
2|--------12-13-13-13-13-15-15-15-15-12---------
3|-----14-------------------------------13------
4|--14-------------------------------------14---
5|----------------------------------------------
6|----------------------------------------------


1|--------12-12h15---12-12-12h15----12-12-------------
2|----------------------------------------15-13-------
3|-----13---------------------------------------14----
4|--14------------------------------------------------
5|----------------------------------------------------
6|----------------------------------------------------



1|----------------------------------------------
2|--------12-13-13-13-13-15-15-15-15-12---------
3|-----14-------------------------------13------
4|--14-------------------------------------14---
5|----------------------------------------------
6|----------------------------------------------


1|--------12-12h15---12-12-12h15----12-12-------------
2|----------------------------------------15-13-------
3|-----13---------------------------------------14----
4|--14------------------------------------------------
5|----------------------------------------------------
6|----------------------------------------------------





1|-------4-----5-----4-5-5-5-----
2|-----5-----5-----5---5-5-5-----
3|---4-----5-----4-----5-5-5-----
4|-------------------------------
5|-------------------------------
6|-------------------------------




Leyenda:


/: Slide de izquierda a derecha.
: Slide de derecha a izquierda.
h: Hammer on/off
This file is the work if its transcriptor and it represents his/her own interpretation of the song. This material is intended for PERSONAL USE ONLY. It is strictly forbiden to copy, reproduce or retransmit the contents of this website. Legal actions will be taken if required.
© LaCuerda.net · legal notice · privacy · es · en · pt · contact us