Tab of Los Mirlos: Eres Mentirosa
Los Mirlos  corregir
desconocido
bueno no toko esta musika pero algunos les gusta y no encuentran
tablaturas
saludos pex pa aguelo=josimar lorenzo=tremolo y el negro= ernesto
y gordo julio de mi lonsa 4to de secundaria "corazon de jesus"
los olivos :D xD xD
intro:
e--------------------------------------------------------
B--------------------------------------------------------
G-------------------9---7--------------------------9-9---
D----8--------8------------10-------8--10---8--10------10
A-10---10-10----10--------------10--------10-------------
E--------------------------------------------------------

e---------10---13--10---12--12------------------------10-
B------10----------------------13--13--11----------10----
G---10-------------------------------------12--10--------
D-12-----------------------------------------------------
A--------------------------------------------------------
E--------------------------------------------------------
verso
e--12---------------------8---12-----10---12-----10--10--
B-----13--13-11---------8---------13---------13----------
G----------------12---9----------------------------------
D--------------------------------------------------------
A--------------------------------------------------------
E--------------------------------------------------------

e------------------------10--13--10--12------------------
B--10--10-------------10----------------13-13--11--------
G----------12--10--10-----------------------------12--9--
D--------------------------------------------------------
A--------------------------------------------------------
E--------------------------------------------------------

e-----8---12------10--.------10---12---13--13--13----10---
B--8----------13------.--10-----------------------10------
G---------------------.-----------------------------------
D---------------------.-----------------------------------
A---------------------.-----------------------------------
E---------------------.-----------------------------------

e--13---17--17---17---------12---10-----10-10-10--10-13--
B---------------------13--13--------13-------------------
G--------------------------------------------------------
D--------------------------------------------------------
A--------------------------------------------------------
E--------------------------------------------------------

e--10-----------------12--10-----10-10-10-10--13--13-10----
B-----13--13--13---13---------13-------------------------
G--------------------------------------------------------
D--------------------------------------------------------
A--------------------------------------------------------
E--------------------------------------------------------

e---10--13--13--10--10---13-10-:-----------12--10-----12-
B-------------------------------13--13--13---------13----
G--------------------------------------------------------
D--------------------------------------------------------
A--------------------------------------------------------
E--------------------------------------------------------

e--10-----12--10--10-10--13--12--10------12-10-----12-10-
B------13----------------------------13--------13---------
G--------------------------------------------------------

e----------------12--10--13--12--10--10-10--10--13--13---
B--13---13---13------------------------------------------
G--------------------------------------------------------

e---10---10----13---10--10--10---------------------------
B--------------------------------------------------------
G--------------------------------------------------------
si no saven
e= primera cuerda
b= segunda y ahi sucesivamente  asu mare es un monton
ojala q lo aproven ps chicheros de mela :D
This file is the work if its transcriptor and it represents his/her own interpretation of the song. This material is intended for PERSONAL USE ONLY. It is strictly forbiden to copy, reproduce or retransmit the contents of this website. Legal actions will be taken if required.
© LaCuerda.net · legal notice · privacy · es · en · pt · contact us