Tab of Los Mirlos: Chinito en onda
Los Mirlos  corregir
desconocido
Hola, soy lualanmi y esta vez les envío otra tabs de Los Mirlos.
Espero que les sirva de algo.

Saludos.

Cualquier duda me buscan en youtube con mi nick.


Intro

1|--10-10-8-8-5-5--8-8-10------------|
2|--10-10-8-8-6-6--8-8-10------------|
3|-----------------------------------|
4|-----------------------------------|
5|-----------------------------------|
6|-----------------------------------|


Riff 1:


1|---------------------5---|
2|-----6---6---6--6/10-----|
3|--/7---7---7-------------|
4|-------------------------|
5|-------------------------|
6|-------------------------|




1|----5--5--5/10 10-------10----10---13-13/10---------|
2|--6--6---------------10----10---------------10-10/6-|
3|----------------------------------------------------|
4|----------------------------------------------------|
5|----------------------------------------------------|
6|----------------------------------------------------|


1|---------------------5-------5--5--6/10-10--|
2|-----6---6---6--6/10-------6--6-------------|
3|--/7---7---7--------------------------------|
4|--------------------------------------------|
5|--------------------------------------------|
6|--------------------------------------------|


1|-----10----10---13----17b--17b--17b--17b--...17/0------|
2|--10----10---------------------------------------------|
3|-------------------------------------------------------|
4|-------------------------------------------------------|
5|-------------------------------------------------------|
6|-------------------------------------------------------|



Riff 2:


1|----------------------------|
2|-6-5h6p5---6--5h6p5---6-----|
3|---------7----------7-------|
4|----------------------------|
5|----------------------------|
6|----------------------------|



1|----------------------------|
2|-6-5h6p5---6--5h6p5---------|
3|---------7----------7-------|
4|----------------------7-----|
5|----------------------------|
6|----------------------------|





1|----------------------------|
2|-6-5h6p5---6--5h6p5---6-----|
3|---------7----------7-------|
4|----------------------------|
5|----------------------------|
6|----------------------------|



1|----------------------------|
2|-6-5h6p5---6--5h6-----------|
3|---------7--------7---------|
4|--------------------7-------|
5|----------------------------|
6|----------------------------|


Riff 3:

1|------------------------------------------------------|
2|---6-8-8b-x----6-8-8b-x------6-8-8/10-10-10-8-6-------|
3|-7-----------7--------------7-------------------(7)---|
4|------------------------------------------------------|
5|------------------------------------------------------|
6|------------------------------------------------------|



1|-------------------------------------------------------|
2|---6-8-8b-x----6-8-8b-x------6-8-8/10-10-10-8-6---6----|
3|-7-----------7--------------7-------------------7------|
4|-------------------------------------------------------|
5|-------------------------------------------------------|
6|-------------------------------------------------------|



1|-------------------------------------|
2|--8h10-10--8h10-10--8-10-8-6-5-6-----|
3|-------------------------------------|
4|-------------------------------------|
5|-------------------------------------|
6|-------------------------------------|





1|-----------------------------------------|
2|--8h10-10--8h10-10--8-10-8-6-5-8---------|
3|-----------------------------------------|
4|-----------------------------------------|
5|-----------------------------------------|
6|-----------------------------------------|




1|-------------------------------------------|
2|--8h10-10--8h10-10--8-10-8-----------------|
3|---------------------------10-9---7-7------|
4|-------------------------------------------|
5|-------------------------------------------|
6|-------------------------------------------|













Repetir Riff 1, 2, 3.













Riff 4:

1|-------------------------------|
2|--6----------------------------|
3|----7-----5-7------------------|
4|--------7----------------------|
5|-------------------------------|
6|-------------------------------|


1|-5---------5/10-10-----------10---13-13/10----------|
2|---6-----6---------10--10-13---------------10-10/6--|
3|-------7--------------------------------------------|
4|----------------------------------------------------|
5|----------------------------------------------------|
6|----------------------------------------------------|




1|--1--------------5-----------------|
2|----3-----1-3/6----6---------------|
3|------2----------------------------|
4|-----------------------------------|
5|-----------------------------------|
6|-----------------------------------|




1|-------5/10-10----------10---13-13/10----------|
2|-----6--------10--10-13---------------10-10/6--|
3|---7-------------------------------------------|
4|-----------------------------------------------|
5|-----------------------------------------------|
6|-----------------------------------------------|





Repetir Riff 1, 2, 3, hasta q termina...






Sorry que no pude ordenar la tabs es q no m dio
tiempo.

Lo importante es aportar algito no?? :)

Salu2
Chulucanas/Piura/Perú Mi tierra natal :)

Dedicada para mi viejo Cosme Anto.
Le encanta tocar esta canción :)

__________
lacuerda.net
This file is the work if its transcriptor and it represents his/her own interpretation of the song. This material is intended for PERSONAL USE ONLY. It is strictly forbiden to copy, reproduce or retransmit the contents of this website. Legal actions will be taken if required.
© LaCuerda.net · legal notice · privacy · es · en · pt · contact us