Guitar Chords » M »Miel San Marcos » Viene Ya (Tab)

Viene Ya
Miel San Marcos

Lyrics, Chords & Tabs for Guitar, Bass & Ukulele

  • e|------------------------------
    B|------------------------------
    G|----5-------2-----------------(x3)
    D|7-7---7-3-3---3----2----------
    A|----------------3-3--5-5-7-5--
    E|------------------------------
    
    Verso:
    Am    F        C       G
    Preparemos el camino, Cristo viene ya
    Am    F        C        G
    Anunciemos su venida en todo lugar
    Am    F        C               G
    Que se abran hoy las puertas, el Rey viene ya
    Am    F        C              G
    Volveremos a adorarle por la eternidad
    
    Coro:
            F     C
    Viene ya, mi Amado
    
  • Intro:   Am   F    C    G
    
    Guitarra:
    D--7-7-9-7--------------------------------------------------------
    A-----------8-8-12-8------------------5-5-7-5--------------------
    E------------------------8-8-12-8--------------------------------     x4
    
    ESTROFA:
    
    
          Am       F      C          G
    Preparemos el camino Cristo viene ya
          Am       F      C         G
    Anunciemos su venida en todo lugar
    
           Am             F      C         G
    Que se abran hoy las puertas el ya viene ya
           Am       F         C         G
    Volveremos adorarle por la eternidad.
    
    
  • Intro:    Am   F    C    G
    
    Riff de la guitarra
    
    
    D|--7-7-10-7-|-----7---|---------|---------|
    A|-----------|-8-8---8-|-----7---|-5-5-7-5-|    X 1
    E|-----------|---------|-8-8---8-|---------|
    
    
        Am          F         C        G
    D|--7-7-10-7-|-----7---|---------|---------|
    A|-----------|-8-8---8-|-----7---|-5-5-7-5-|    X 5
    E|-----------|---------|-8-8---8-|---------|
    
    
    
    Verso:
    Am       F          C          G      Am
       Preparemos el camino Cristo viene ya
    
  •    Am      F       C       G      x3       Am      F       C       G      x1
    6---------------------------------|---------------------------------8-7-5-|
    5-----------------8-8---8-5-5-8-7-|---------------------8-8---8-5-5-------|
    4---------8-8---8-----7-----------|-------------8-8---8-----7-------------|
    3-7-7---7-----7-------------------|-----7-7---7-----7---------------------|
    2-----5---------------------------|---------5-----------------------------|
    
       Am    F         C            G    Am
    // Preparemos el camino Cristo viene ya //
              F      C         G       Am
    // Anunciemos su venida en todo lugar //
                 F            C           G          Am
    // Que se abran hoy las puertas que el rey viene ya //
          F         C           G     Am
    Volveremos adorarle por la eternidad.
    
    CORO:
    
           F      C     G         Am
    Viene ya mi amado, pronto le veré
    
  • +
    ¡Colabora con nosotros!
    Envíanos tu versión de esta canción
  • Tutorial
    HD
    Miel San Marcos Viene Ya Bajo Tutorial With Tabs (HD)
    4:31

Viene Ya Lyrics
Verso:
Preparemos el camino, Cristo viene ya
Anunciemos su venida en todo lugar
Que se abran hoy las puertas, el Rey viene ya
Volveremos a adorarle por la eternidad
Viene ya, mi Amado
Pronto le veré
Viene ya, mi Amado
Pronto volverá
Y voy cantando, gritando,
Celebrando su victoria
Viene ya, mi Amado
Cristo viene ya
Quiero preguntar....
Lo haces hasta que empiece el solo
Sólo: F C G Am
Yo quiero que está transcripción esté al
100%.
Si tienen algún comentario o pregunta
Favor de contactarme cesarjesussanchez21@gmail.com
Dios les bendiga




[Viene Ya acordes][Viene Ya cifra]
© LaCuerda.net · legal notice · privacy · es · en · pt · contact us
DINAMICO