Guitar Chords » M »Marcos Witt » Porque tu eres bueno (Tab)

Porque tu eres bueno
Marcos Witt

Lyrics, Chords & Tabs for Guitar, Bass & Ukulele

  • D                     D7
     Porque tu eres bueno
      Am  D7       G
    porque para siempre
    A             F#m  Bm
    tu misericordia es
           G              A
    cada mañana al despertar
              F#m          Bm
    se que en ti puedo confiar
           G             A          D
    me sostienes por tu gran fidelidad
    
    
    D                     D7
     Porque tu eres bueno
    Am             G
     porque tu justicia
    A          F#m     Bm
    justicia eterna es
    
  • INTRO: D
    
    
    D                 D7
    Porque tu eres bueno
      Am     D7       G
    porque para siempre
    A             F#m  Bm
    tu misericordia es
           G              A
    cada mañana al despertar
              F#m          Bm
    se que en ti puedo confiar
           G             A          D
    me sostienes por tu gran fidelidad
    
    
    D                     D7
     Porque tu eres bueno
    Am             G
    
  •           A7              D9/A
          e|-----------0-------5--------5------------5--------5--------|
          B|---------2-------------5--------5------------5--------5----|
          G|-------0-------------7--------7------------7--------7------|
          D|-----2-------------------7--------7------------7--------7--|
          A|---0-------------5---------------------5-------------------|
          E|-------------------------------------5---------------------|
    
    
    Estrofa 01 (en nota D):
    
    Porque... bueno...            porque... siempre...       ...cordia es...
    
             D9              Am7/E D7       G*           Gbm7
          e|--------0--------3--2---------------------------------------2----------------
          B|------3---3------1--1-------------3-----------2-----------2---2-----3-2h3h2--
          G|----2-------2-0--0--2---------------4---0-----2---------2-------2---------2--
          D|--0--------------2--0-----------4-----4-------2-------4----------------------
          A|--------------------------------------------4-------4-------------2----------
          E|------------------------------3-----------3-------2--------------------------
    
  • +
    ¡Colabora con nosotros!
    Envíanos tu versión de esta canción
  • Tutorial
    HD
    porque tu eres bueno Tutorial con guitarra
    8:46

Porque tu eres bueno Lyrics
Porque tu eres bueno
porque para siempre
tu misericordia es
cada mañana al despertar
se que en ti puedo confiar
me sostienes por tu gran fidelidad
Porque tu eres bueno
porque tu justicia
justicia eterna es
en ella yo me deleitare
en tu verdad caminare
en tu senda de justicia guiame
por lo que despues del ultimo D, toquen un B7 y despues E




[Porque tu eres bueno acordes][Porque tu eres bueno cifra]
© LaCuerda.net · legal notice · privacy · es · en · pt · contact us
DINAMICO