Guitar Chords » M »Marcos Witt » Peña de Horeb (Tab)

Peña de Horeb
Marcos Witt

Lyrics, Chords & Tabs for Guitar, Bass & Ukulele

  •               Em       C                Am
    Cristo es la peña de Horeb, que esta brotando
             Am7       B          Em
    agua de vida, saludable para mi
                  E7                        Am
    Cristo es la peña de Horeb, que esta brotando
             Em        B7        Em
    agua de vida, saludable para mi
    
              D                              G
    Ven a probarla que es mas dulce que la miel
                 Am                  Em
    refresca mi alma, refresca todo mi ser
                  E7                        Am
    Cristo es la peña de Horeb, que esta brotando
             Em        B7         Em
    agua de vida, saludable para mi
  •               Em       C                B
    Cristo es la peña de Horeb, que esta brotando
             Am       B          Em
    agua de vida, saludable para mi
                  Em      Am                C
    Cristo es la peña de Horeb, que esta brotando
             Em        B        Em
    agua de vida, saludable para mi
    
              Am              C              Em
    Ven a probarla que es mas dulce que la miel
                 B              Am    Em
    refresca mi alma, refresca todo mi ser
                  Em       C                 Am
    Cristo es la peña de Horeb, que esta brotando
             Em        B         Em
    agua de vida, saludable para mi
  • Intro: Em D C G Am C B7
    
             Em       D       C  G
    e ---------------------------------------------------------|
    B ---8-8h9----8h9-8---------8------------------------------|
    G -9-------9--------9-7-7h9--------------------------------|
    D ----------9----------------------------------------------|
    A ---------------------------------------------------------|
    E ---------------------------------------------------------|
    
             Am    C         B7
    e -----------------10-8-7----------------------------------|
    B -7-8-9-10------7--------10-8-7---------------------------|
    G ---------------------------------------------------------|
    D ----------9h10-------------------------------------------|
    A ---------------------------------------------------------|
    E ---------------------------------------------------------|
    
            Em        D       C   G
    e ---------------------------------------------------------|
    
  • +
    ¡Colabora con nosotros!
    Envíanos tu versión de esta canción
  • Tutorial
    Peña de Horeb - guitarra acústica
    2:45

Peña de Horeb Lyrics
Cristo es la peña de Horeb, que esta brotando
agua de vida, saludable para mi
Cristo es la peña de Horeb, que esta brotando
agua de vida, saludable para mi
Ven a probarla que es mas dulce que la miel
refresca mi alma, refresca todo mi ser
Cristo es la peña de Horeb, que esta brotando
agua de vida, saludable para mi




[Peña de Horeb acordes][Peña de Horeb cifra]
© LaCuerda.net · legal notice · privacy · es · en · pt · contact us
DINAMICO