Guitar Chords » M »Marcos Witt » Cuan bello es el Señor (Tab)

Cuan bello es el Señor
Marcos Witt

Lyrics, Chords & Tabs for Guitar, Bass & Ukulele

  • DO                 FA
    Cuán bello es el Señor,
    SOL                  DO
    cuán hermoso es el Señor.
    LAm                 REm
    Cuán bello es el Señor,
    SOL               DO DO7
    yo le quiero adorar. (2)
    
    CORO
    FA
    La belleza de mi Señor
    SOL            DO
    nunca se agotará,
    LAm                  REm
    la hermosura de mi Señor,
    SOL                DO DO7
    siempre resplandecerá. (2)
  • RE               SOL   (LA)
    Cuan bello es el señor
                        RE    (SOL-LA-RE)
    cuan hermoso es el señor
    RE               SOL   (LA)
    cuan bello es el señor
          SOL    LA   RE
    yo le quiero adorar
    
    (2)
    RE7              SOL   (LA)
    La belleza de mi señor
                   RE   (FA#m-SIm)
    nunca se agotará
                         SOL  (LA)
    la hermosura de mi señor
                       RE
    siempre resplandecerá
    RE7              SOL   (LA)
    la belleza de mi señor
    
  •                   G2  A/G
    Cuan bello es el sr
    
                       F#m7 B7(#5,#9)
    cuan hermoso es el sr
    
                     Em9 A13
    Cuan bello es el sr
    
                      D Dmaj9
    hoy le quiero adorar
    
    
    2 vez Am9 F#aug/G#
    
    coro:
                      G2 A/G
    La belleza de mi sr
    
                  F#m7 B7(#9)
    
  • Intro: Fmaj9 - F#maj9 - Fmaj9 - Ebm7
    
      VERSO
    
    Fmaj9               Gm7
    Cuán  bello es el Señor,
    
    C13                Fmaj7
    Cuán hermoso es el Señor.
    
    D7                 Gm7
    Cuán bello es el Señor,
    
    C13               Fmaj7  D7
    Hoy le quiero adorar.
    
                      Gm7
    Cuán bello es el Señor,
    
    C13                Fmaj7
    
  •              F6(9)
    E|--------|--12--13-12-----------|-----------------------------------|
    B|--13-15-|--------------13------|---15------------------------8-----|
    G|--------|-------------------14-|-------14--14--12---------10-------|
    D|--------|----------------------|-----------------------------------|
    A|--------|----------------------|-----------------------------------|
    E|--------|----------------------|-----------------------------------|
    
       Gb6(9)
    E|-------------------------------|-----------------------------------|
    B|-9-8---------------------------|-----------------------------------|
    G|-----10-8-------8------------8-|-----------------------------------|
    D|----------11-10----11-10/10----|--10-11-10-8--10-------------/10---|
    A|-------------------------------|-----------------------------------|
    E|-------------------------------|-----------------------------------|
    
       F6(9)
    E|----------------------|-12--13-12----------------------------------|
    B|----------------10-13-|------------10-10---------------------------|
    G|------9-12-9-10-------|--------------------------------------------|
    
  • esta es una tab q encontre para guitar pro... espero les sirva...
    
    Title: Cuan bello es el Señor
    Tempo = 151
    bass
    
    Legend
    L - tied note
    x - dead note
    h - hammer on/pull off
    b - bend
    s - slide
    ~ - vibrato
    g - ghost note
    ] - accentuated note
    t - trill
    M - palm mute
    . - staccato
    P - popping (bass)
    S - slapping (bass)
    + - tapping
    W - wide vibrato
    [ - fade in
    w - whammy bar
    = - tremolo picking
    v - brush up
    ^ - brush down
    V - pick stroke up
    n - pick stroke down
    
    
    
    G |-------|-------|-------|-------|----------------------------|
    D |-------|-------|-------|-------|--3--------3-----------3L---|
    A |-------|-------|-------|-------|--------------3-------------|
    E |-------|-------|-------|-------|----------------------------|
    
    
    
    ----------------------------|----------------------------|
    --3--------3----------------|--4--------4-----------4L---|
    --------------3-------------|--------------4-------------|
    ----------------------------|----------------------------|
    
    
    
    ----------------------------|-----
  • REm               MIm   SOL                      RE
      A   A   G   F#  A G      G  F# G G  F# G  F# G F# D
    cuan bello es el señor , cuan hermoso es el señor
    REm                MIm RE LA                RE  DO
     A   A    G   F#  A G      D  D   F# E  D C#D
    cuan bello es el señor ,  hoy le quiero adorar
    coro:
    RE                    SOL LA                 RE
    D* D* D*  D* D* D*   A G *C# D* *C# D**C# B A
    la be lle za de  mi señor nunca  se a  go tara
    SIm                  MIm LA                    RE
      B   B B B  B  B  F# G  *C# D*  *C#  D* *C# B A
    la hermosura de mi señor siempre res plan de cerá.
    
     *es una octava arriba
    hecho por Cristian MAIL:narisroja77@hotmail.com
  • +
    ¡Colabora con nosotros!
    Envíanos tu versión de esta canción
  • Tutorial
    HD
    Cuan bello es el Señor
    tutorial con guitarra
    7:04

Cuan bello es el Señor Lyrics
Cuán bello es el Señor,
cuán hermoso es el Señor.
Cuán bello es el Señor,
yo le quiero adorar. (2)
La belleza de mi Señor
nunca se agotará,
la hermosura de mi Señor,
siempre resplandecerá. (2)




[Cuan bello es el Señor acordes][Cuan bello es el Señor cifra]
© LaCuerda.net · legal notice · privacy · es · en · pt · contact us
DINAMICO