Guitar Chords » M »Marco Barrientos » Ven, es hora de adorarle (Tab)

Ven, es hora de adorarle
Marco Barrientos

Lyrics, Chords & Tabs for Guitar, Bass & Ukulele

  •  E                 A/E E
    Ven, es hora de Adorarle
     B               F#m7  A
    Ven, abre tu corazón a Él
     E                  A/E E
    Ven, ante su trono estamos
     B               F#m7      A   E
    Ven, ante la majestad de Dios,Ven.
    
    
    |Coro|
    
    
     A                  E
    Toda lengua confesará que Él es Dios
     A                    E
    Las rodillas se doblarán,
      A             C#m
    Y un tesoro tendrás en Él
          A          B
    
  • Afinación: G D A E B
    
    
      Intro (0:16)
    G |-----------------------------------------------------------
    D |-----------------------------------------------------------
    A |-----------------------------------2-----------------------
    E |----0---------------0----------------------------2---------
    B |-----------------------------------------------------------
    
    G |-----------------------------------------------------------
    D |-----------------------------------------------------------
    A |-------------------------------7------------------------2--
    E |----5--------------0-------------------0-------------------
    B |-----------------------------------------------------------
    
    G |--------------------------------|
    D |--------------------------------|
    A |--------------------------------|
    E |--------2--------------5--------|
    B |--------------------------------|
    
      (0:58) Versos
    G |----------------------------------------------------------
    D |----------------------------------------------------------
    A |
  • +
    ¡Colabora con nosotros!
    Envíanos tu versión de esta canción
  • Tutorial
    HD
    ven es hora de adorarle acordes con guitarra
    4:47

Ven, es hora de adorarle Lyrics
Ven, es hora de Adorarle
Ven, abre tu corazón a Él
Ven, ante su trono estamos
Ven, ante la majestad de Dios,Ven.
|Coro|
Toda lengua confesará que Él es Dios
Las rodillas se doblarán,
Y un tesoro tendrás en Él
Si esconjes su Amor.
¡Espero que les alla gustado!
Un saludo muy cordial a mi cuñado del Alma;
El sapito Misael,aqui en Barquisimeto.




[Ven, es hora de adorarle acordes][Ven, es hora de adorarle cifra]
© LaCuerda.net · legal notice · privacy · es · en · pt · contact us
DINAMICO