Guitar Chords » M »Maná » Te lloré un río (Tab)

Te lloré un río
Maná

Lyrics, Chords & Tabs for Guitar, Bass & Ukulele

  • E -----4-----7------4------------4-----7-7---4-----
    B ---5---5------5-----5--------5---5------------7--
    G -4-------4------4----------4-------4-----4-------
    D -------------------------------------------------
    A -------------------------------------------------
    E -------------------------------------------------
    
    
    E -----4-----7------4------------4-----7-7---4-----
    B ---5---5------5-----5--------5---5------------7--
    G -4-------4------4----------4-------4-----4-------
    D -------------------------------------------------
    A -------------------------------------------------
    E -------------------------------------------------
    
    
    E -----4-----7------4------------4-----4-7-4-------
    B ---5---5------5-----5--------5---5---5-9-5--5-7-5
    G -4-------4------4----------4-------4--------4-6-4
    D -------------------------------------------------
    
  • E -----2-----5------2------------2-----0-0---0-----
    B ---3---3------3-----3--------3---3------------3--
    G -2-------2------2------2---2-------2-----2-------
    D -------------------------------------------------
    A -------------------------------------------------
    E -------------------------------------------------
    
    RIFF2
    E ---------------2-2-3-5-3-2-3---------------------
    B ---3-2-0-2-0-2-3-------------3-3-2-0-------------
    G ---------------2---------------------------------
    D -------------------------------------------------
    A -------------------------------------------------
    E -------------------------------------------------
    
       D                      A
       Yo aquí llorandote un río
                        B 
       lanzandome al olvido
                       A
    
  • e---------4---------7--------4---------------4--------2-2-2--4--2---º
    B----5-------5--------5--------5--------5------5------------------0-º
    G--4---4--------4--------4-------4----4---4------4------------------º
    D-------------------------------------------------------------------ºX 2
    A-------------------------------------------------------------------º
    E-------------------------------------------------------------------º
    
    
    INTRO 2:(LA GRABACION)
    
             E         C#m              A              B
    e--------4---------7--------4---------------4--------2-2-2--4--2---º
    B----5-------5--------5--------5--------5------5------------------0-º
    G--4-----------------------------4----4----------4------------------ºX 2
    D-------------------------------------------------------------------º
    A-------------------------------------------------------------------º
    E-------------------------------------------------------------------º
    
    YO EN ESTE CASO VOY A HACER LA GRABACION
    
    
  • e|--------------------------------------------------------------|
    B|---------9-----12-----9----------------9-----7-7---9-7--------|
    G|-----9-----9------9-----9----------9-----9-------9------------|  X 2
    D|---9---9-----9------9------------9---9-----9------------------|
    A|--------------------------------------------------------------|
    E|--------------------------------------------------------------|
    
    e|----------------------------------------------/2--4-----------|
    B|---------9-----12-----9----------------9------/4--5--5--5-----|
    G|-----9-----9------9-----9----------9-----9-----------4--4-----|
    D|---9---9-----9------9------------9---9-----9------------------|
    A|--------------------------------------------------------------|
    E|--------------------------------------------------------------|
    
    E                        B7
    Yo  aquí llorándote un río
    
                      C#m
    mandándome al olvido
    
    
  • Aquí esta el punteo completo de esta canción en vivo de Maná
    Espero que les guste!!!!
    
    
    
    
    Intro:
    
    E-------------------------------------------|
    A-------------------------------------------|
    D-------------------------------------------|
    G--4-----4--------4--------4--------4-------|
    B-----5--------5--------5--------5-----5----|
    E-----------4--------7--------4-------------|
    
    
    
    
    E----------------------------------------------|
    A----------------------------------------------|
    D----------------------------------------------|
    G--6-----6--------6-----4-----4--------4-------|
    B-----5--------5-----7-----7--------7-----5----|
    E-----------4--------------------4-------------|  todo esto se repite x2
    
    
    
    
    y el último es así
    
    
    E-------------------------------------------|
    A-------------------------------------------|
    D-------------------------------------------|
    G--4-----4--------4--------4--------4-------|
    B-----5--------5--------5--------5-----5----|
    E-------
  • E                      B
    Yo aqui llorandote un rio
                     C#m
    mandandome al olvido
                    B
    que cosa mas injusta amor
    E                      B
    Fuiste matando mis pasiones
    1.-2-2-2------------|
    2.-------4-4-4--2-2-|
                      C#m
    tachando mis canciones
                    A
    me tenias pisoteado
                   B
    estaba desahuciado
                       C#m          B
    No es justo, no bebe Oh oh e oh
    1.-7-7-7-------------------|
    2.--------9-9-9-7-7-7------|
    
  • Intro: E - C#m - A - B X 2 
    
    |-----------7------------------------------|
    |-----9-----------9--------9-----7-7---9-7-|
    |---9---9-----9-----9----9---9-------------| X 2
    |-9-------9-----9------9-------9-----9-----|
    |------------------------------------------|
    |------------------------------------------|
                                    *
    |-----------7--------------------5/7-------|
    |-----9-----------9--------9-----5/7-9-----|
    |---9---9-----9-----9----9---9-------9-9-9-|
    |-9-------9-----9------9-------9-------9-9-|
    |------------------------------------------|
    |------------------------------------------|
    
    Versos
    
    E                      B                   C#m
    Yo aquí llorándote un río mandándome al olvido
    
  • ESTA ES UNA ROLA MUY COMPLICADA, ESPECIALMENTE
    PORQUE EL RITMO DEL BAJO ES MUY PAUSADO, 
    PERO SI ESCUCHAN LA ROLA EN EL CD MUY PRONTO
    LE ENCONTRARAN EL RITMO. SUERTE!
    
    INTRO
    
    G-------------------------
    D-------------------------
    A----4-0-2----4-0-2-------
    E--0--------0--------0----
    
    1ER ESTROFA
    Yo aqui llorandote un rio...
    Ya no me busques...
    
    G----------------------------------------
    D--------6------6------------------------
    A--7-7-7----7-7---7--------6------6-9----
    E--------------------7-7-7----7-7--------
    
    G--------------------------------------------
    D--------------------------------------------
    A--------11-11------11----------6------6-9---
    E--9-9-9--------9-9----9--7-7-7----7-7-------
    
    Fuiste matando...
    Que te perdono...
    
    G----------------------------------------
    D--------6------6------------------------
    A--7-7-7----7-7---7--------6------6-9----
    E--------------------7-7-7----7-7--------
    
                                Estaba desauceado...
              
  • bueno esta cancion creo que es una de las mas tristes y
    reflexivas que tienes nuestra banda.. mana!!
    esto va dedicado a dos personas... yeli se que te encanta.. por eso la compuse
    pero adriana esto que dice es lo que me ha estado pasando..
    te he llorado tanto
    las extraño!
    aaron
    
    H crash
    h contras
    t tarola
    1 tomb izuqierdo
    2 tomb derecho
    3 tomb de piso
    b bombo
    r pegar en el aro de la tarola
    u subir los contras
    
    intro
    H |---------------------------------------------------------------------|
    h |-xxu-x-x-x-x-x-x-x-x-x-x-x-x-x-x-x-x-x-x-x-x-x-x-x-x-x-x-x-x-x-x-x-x-|
    t |---------------------------------------------------------------------|
    b |---------------------------------------------------------------------|
    
    H |-x---------------------------------------------------------------|
    h |---x-x-x-x-x-x-x-x-x-x-x-x-x-x-x-x-x-x-x-x-x-x-x-x-x-x-x-x-x-x-x-|
    t |---------------------------------------------------------------1-|
    b |-o---------------o---------------o--------
  • +
    ¡Colabora con nosotros!
    Envíanos tu versión de esta canción

Te lloré un río Lyrics
Yo aquí llorandote un río
lanzandome al olvido
que cosa más injusta amor
Fuiste matando mis pasiones
tachando mis canciones
me tenías pisoteado
estaba desahuciado
No es justo, no bebé‚ Oh oh e oh %
PRE CORO :
Pero este mundo ya giró
y ahora te toca perder Oh oh e oh
(aquí hay una guitarra de fondo tocando el Riff del Intro)
Bebe te lloré todo un río (oh bebe bebe)
Bebe te lloré‚ a reventar (oh bebe bebe)
Oh no no nooo, no tienes corazón [noo]
No te vuelvo a amar
Te lloré‚ todo un río
ahora llorame un mar
2.(Siguiendo los mismos acordes)
Ya no me busques ya es muy tarde
ya tengo otro amor
una chula sirena que nada en mi piel
Yo te perdono no hay rencores
tan sólo los dolores
Mi alma está arañada
lloré‚ el suelo mojado
No es justo no bebé‚ oh oh e oh
PRE CORO
Cuando se toca esta parte ocurre lo mismo que enel coro, una guitarra
de fondo toca el Riff del Intro.
Verdad que un río te lloré, verdad que no te vuelvo a amar
oh no no no, no te vuelvo a amar (uh uh uh)
Repite esto 3 veces, pero la segunda vez en vez de tocar la segunda
linea toca:
oh no no no, pierdete en tu mar
Y la tercera vez, en vez de la segunda linea toca
llórame llórame llórame
YA TENGO CASI TODOS LOS ADORNOS Y EL SOLO. PROXIMAMENTE SE LOS MANDO.




[Te lloré un río acordes][Te lloré un río cifra]
© LaCuerda.net · legal notice · privacy · es · en · pt · contact us
DINAMICO