Guitar Chords » M »Maná » Me Vale (Tab)

Me Vale
Maná

Lyrics, Chords & Tabs for Guitar, Bass & Ukulele

  • A-A-A-A---(esto se toca seguido 4 veces)
    
    A--E--D
                                                       TIP.
    A                               E        D
    No me importa lo que piensa la gente de mi        <--- los acordes
    A                                                 <--- se escuchan
    que si traigo el pelo de alguna manera,           <--- mejor si
             E                 D                      <--- solo tocan
    por que me gusta traerlo asi.                     <--- las 3 primeras
             A               E                        <--- cuerdas
    Que por que escucho ese tipo de musica            <--- e--B--g
                     D     A E D                      <--- en todos
    SI es LA que me gusta oir.                        <--- los versos
                                                      <--- no en el
                                                      <--- coro.
        A
    Critican todo lo que ven en mi,
          E               D
    inventan chismes que no son ciertos.
    
  •  A Esus2 D5 (X2)
    
     VERSOS:
    
    (A LOS VERSOS TOQUENLOS DE ABAJO PARA ARRIBA CON LA (PRIMERA,
    SEGUNDA Y TERCERA CUERDA DE ELECTRICA)
    A                              Esus2     D5
    No me importa lo que piensa la gente de mi
             A
    que si traigo el pelo de alguna manera
            Esus2             D5
    por que me gusta traerlo asi
              A
    que si escucho ese tipo de musica
    Esus2              D5     A Esus2 D5
    si es la que me gusta oir
    
    (CON LOS MISMOS ACORDES ANTERIORES)
    Critican todo lo que ven en mi
    inventan chisme que no son siertos
    
  •  A......                        A  Bsus4  Asus4
    [0-0-0-0-]                     [5--7------5----]
    [2-2-2-2-]DESPUES PASA A ESTAS [5--7------5----]
    [2-2-2-2-]NOTAS CON UN RAGEO   [6--9------7----]
    [2-2-2-2-]RAPIDO               [7--9------7----]
    [0-0-0-0-]                     [7--7------5----]
    [0-0-0-0-]                     [5--7------5----]
    
    LETRA:
    INTRO:
    A-A-A-A
    ECHALE VAMPIRO
    
    A--Bsus4--Asus4
    VERSO:
    A                            Bsus4    Asus4
    NO ME IMPORTA LO QUE PIENSA LA GENTE DE MI
    A
    QUE SI TRAIGO EL PELO DE ALGUNA MANERA,
             Bsus4            Asus4
    
  • Bueno, esta cancion es lo MAS facil que existe, toda la cancion se va casi igual, hay les va:
    
    G---------------------------------------------------------
    D------------------------------9------------4-------------
    A--------4----------4----7-7-7---7--5-5-5-5---5-----------
    E--5-5-5---5--5-5-5---5-----------------------------------
    
    
    en el coro se toca asi
    
    G---------------------------------------------------------
    D---------------------------------------------------------
    A------------------------------------------------------5-5
    E--5-5-5-5-5-5-5-5-5-5-5-5-5-5-5-5-5-0-0-0-0-0-0-0-0-0----
    
    G---------------------------------------------------------
    D---------------------------------------------------------
    A-5-5-5-5-5-5-5-------------------------------------------
    E---------------------------------------------------------
    
    la cancion tiene partes en donde se toca asi, no solo en los coros, 
    pero ahi oiganla y decidan uds como suena mejor.
    
    hay un como puentecito por 
  • No es por menospreciar el anterior trabajo pero estoy seguro
     que este es el verdadero:
    
    Introduccion:
    G|--------------------------------------|  2X
    D|-----------------------9---------4----|
    A|------4--------4---777--7---5555--5---|
    E|-5555--5--5555--5---------------------|
    
    Verso
    G|--------------------------------------|  
    D|-----------------------9---------4----| 9x
    A|------4--------4---777--7---5555--5---|
    E|-5555--5--5555--5---------------------|
    
    Algunas variaciones que se oyen en el verso: 
    G|--------------------------------------| (que se tocan despues del Segundo verso)
    D|-----------------------7---------6----|  
    A|------4--------4---777--7---5555--5---|
    E|-5555--5--5555--5---------------------|
    
    
    coro
    G|--------------------------------------|  4X 
    D|--------------------------------------|
    A|--------------------------555555555---|
    E|-5555555555---222222222---------------|
    
    Puente:
    
    G|-------------------------------------------|  
    D|---------------
  • Ya estamos de vuelta con mas tablaturas de mana, si desean alguna solo escriban.
    
    
    las 'x' y las 'o' significan golpes,las letras que se muestran abajo (encerradas en la casita) es a donde se le va a pegar, 
    al lado izquierdo de cada pentagrama se muestra a que se le va a tocar.
    
    las otras letras que se muestarn abajo ya van puestas en el pentagrama, dependiendo por supuesto de su letra.
    
    ________________________
    c- platillo de remate   |
    h- contras              |
    s- tarola               |
    b- bombo                |
    ________________________|
    
    t- tomb izquierdo
    u- tomb derecho
    k- tomb de piso
    r- platillo de ritmo
    p- splash
    g- golpe al platillo de remate y enseguida detener el sonido agarrandolo con la mano.
    
    
    
    las partes de los versos va con una tarola que no tiene rejilla, en los coros entra la tarola con la rejilla puesta.
    
    
    hechele vampiro, auuuu...                                            en tu ma...
    c |-x-------------------------------------------------
  • +
    ¡Colabora con nosotros!
    Envíanos tu versión de esta canción
  • Tutorial
    HD
    Me Vale Mana Guitarra Como Tocar Tutorial
    10:04

Me Vale Lyrics
TIP.
Critican todo lo que ven en mi,
inventan chismes que no son ciertos.
Con quien hablo, con quien salgo, con quien ando
que te importa es mi vida.
Si yo no le hago da~o a nadie
quien eres tu para decirme como vivir
Quien eres tu?
Me vale lo que piensen hablen de mi
es mi vida y yo soy asi, Simon.
Me vale lo que piensen hablen de mi
es mi vida y yo soy asi, porque
Me vale, vale, vale, me vale todo.
Me vale, vale, vale, me vale todo.
Si no me entienden o comprenden
pues ya ni modo
porque me vale, vale, vale, me vale todo.
No puedes criticar algo si conocerlo primero.
sere muy feo por afuera pero muy bello por adentro.
Si eres una de esas personas te tengo una solucion.
en vez de estar fregando y molestandome asi
dedicate a encontrar que hay de mal en ti.
Me vale lo que piensen hablen de mi
es mi vida y yo soy asi, Simon.
Me vale lo que piensen hablen de mi
es mi vida y yo soy asi, porque
Me vale, vale, vale, me vale todo...
Mientras los reprimidos
adan aburridos
yo no ando de jodido
no tengo broncas, porque soy yo mismo.
Hablen lo que quieran.
Que piensan o murmura la gente de mi
que piensan los vecinos de mi
que piensan los maestros de mi
que piensa la autoridad de mi.
Que piensan mis padres de mi
que piensan mis suegros de mi
que piensa todo el mundo de mi
Me vale,
Me vale.
Pongase al tanto
por que el mundo gira rapido.
Pongase al tiro
o se quedaran atras, porque
Me vale, vale, vale, me vale todo...




[Me Vale acordes][Me Vale cifra]
© LaCuerda.net · legal notice · privacy · es · en · pt · contact us
DINAMICO