Guitar Chords » M »Maná » Cuando los Angeles Lloran (unplugged) (Tab)

Cuando los Angeles Lloran (unplugged)
Maná

Lyrics, Chords & Tabs for Guitar, Bass & Ukulele

  • Intro: C#m B A E E4 E E4 E
    
    C#m                     B
       A Chico Mendez los mataron
                          A
    era un defensor un angel
                     E E4 E E4 E
    de toda la Amozonia
    
    El murio a sangre fria
    lo sabia Color de Melo
    y tambien la policia
    
    G#7                     C#m
       Cuando los angeles lloran
                            A
    lluvia cae sobre la aldea
                          E
    lluvia sobre el campanario
                     B
    
  •      D(E)                        G(A)
    
    e|------4-------4p2----------|------5-------5-2-----|
    B|-----5------5------5-2-----|-----5------5-----4---|
    G|----4-----4--------4-2-4---|----2-----2---------4-|
    D|---2-------------------6---|----------------------|
    A|---------------------------|----------------2-----|
    E|-------------------3-------|---5------------------|
    
         D(E)                        G(A)
    
    e|------4-------4p2----------|------5-------5-------------|
    B|-----5------5------5-2-----|-----5------5-----5-4p2-4---|
    G|----4-----4--------4-2-4---|----2-----2-----6-----------|
    D|---2-------------------6---|----------------------------|
    A|---------------------------|------------------2---------|
    E|-------------------3-------|---5------------------------|
    
         D(E)             A(B)            Bm(C#m)
    
    
  • >INTRO<
    e|--4---4---------5---5-4----|-4---4---------5---5----------
    b|--5--5--7-5-2---5--5---7-4-|-5--5--7-5-2---5--5---5-4-2-4-
    g|--4-4-----4-2-4-6-6--------|-4-4-----4-2-4-6-6---6--------
    d|--------------6-----------7|-------------6----------------
    
    e|-4-7-5-4-----2---2---4-----------0-------0------4-5-4--------------
    b|-5-------7-5-4--4--5---7-5-4-----3---3-0----2-7-------7-5-5-4-2-4--   x2
    g|-4-----------4-4---6---------6-4-3--3-----3------------------------
    d|-------------------6-------------3-3-------------------------------
    
    e|-----------4-5-7---4-2---------------
    b|-----4-5-7-------5-----5-4----5h4m5--
    g|-4-6-------------------------6-------
    d|----------------------------6--------
    a|---------------------------4---------
    
    >riff 1<
    e|---0--0--0--0----0--0--0--0----0--0--0--0----0--0--0--0-
    b|--0--0--0--0----0--0--0--0----0--0--0--0----0--0--0--0--
    
  •    D                   G                        D
    e--2------2-0----------3--------3--2--0---------2--------2-0--------
    b--3----3-----3--0-----3-----3-----------2------3-----3------3--0---
    g--2--2-------2--0--2--0--0-----------------2---2--2---------2--0--2
    d--0----------------4--0------------------------0------------------4
    a----------------------2--------------------------------------------
    e-------------------------------------------------------------------
    
       G                            D                    A          Bm
    e--3--------3-------------------2--5--3--2-----------0--------0--2--
    b--3-----3--------3--2/0--2-----3-----------5--3--2--2-----2-----3--
    g--0--0--------0-------------2--2--------------------2--2--------4--
    d--0----------------------------0--------------------2-----------4--
    a--2----------------------------------------------------------------
    e-------------------------------------------------------------------
    
    
    e--2--------------------------------------0--2--3-------------------
    b-----5--3--2--------0--------0-----3--------------0--3-2/0--2------
    g--------------4--2--------0-----2-----0------------------------2---
    
  • e|------4-------4------------|------5-------5-4-----|
    B|-----5------5---7--5-2-----|-----5------5----7-4--|
    G|----4-----4--------4-2-4---|----2-----2-----------|
    D|---2-------------------6---|--------------------7-|
    A|---------------------------|----------------------|
    E|---------------------------|----------------------|
    
    e|------4-------4------------|------5-------5-------------|
    B|-----5------5---7--5-2-----|-----5------5-----5-4p2-4---|
    G|----4-----4--------4-2-4---|----2-----2-----6-----------|
    D|---2-------------------6---|----------------------------|
    A|---------------------------|---------------2------------|
    E|-------------------5-------|----------------------------|
    
    e|----4---7p5-4---------2------2-|--------4-----------------------------|
    B|---5----------7-5-4--4-----4---|----5-----7-5p4-----2------2----5---2-|
    G|--4-----------------4----4-----|---6------------6p4------2----4---2---|
    D|-2-----------------------------|--6--------------------2--------------|
    A|-------------------2-----------|-4------------------------------------|
    E|-------------------------------|--------------------5---------4---2---|
    
  • Capo 2
    Tab by: Gerardo Moran
    
    Aqui esta esta rola que estoy mas que 100% seguro que asi se
    toca en por el grande Sergio Vallin. Disfrutenla pues yo sigo
    practicandola a mas no poder.
    
    
    e--3------3-0-------------I-4-----4-3-0--------
    B--2----2-------2-0-------I-4---4-------2------
    G--3--3---------3-0(1--)--I-5-5-----------0----
    D-(0---------)-----(0--)--I--------------------
    A-------------------------I----------(0-------)
    E--------------(3------)--I(0-----)------------
    
    e--3------3-0-------------I-4-----4------------
    B--2----2-------2-0-------I-4---4-----3-2p0-2--
    G--3--3---------3-0(1--)--I-5-5----5---------2-
    D-(0---------)-----(0--)--I--------------------
    A-------------------------I----------(0-------)
    E--------------(3------)--I(0-----)------------
    
    e--3X-5-3-2-0---0-----0----I-2--------------------------
    B--2X---------3-2---2---3--I---5-3-2-0-0-----0---3---0--
    G--3X-----------2-2-----4--I-----------0---0---2---0----
    D--0X-------------------4--I-----------0-0--------------
    A--------
  • Ki onda :):) bueno alli les mando esta canción bien chida
    una de las mejores del unplugged, y me siento super realizado porque la saque
    d oido y pues esta medio cabrona. asi que escuchenla bien para que la saquen
    bien ;) Saludos a todos mis amigos y amigas..... marco :)
    
    Primero se divaga el sergio con la guitarra y después entra el bajo con los
    demás instrumentos
    
    INTRO
    G--------------------------------
    D--------------------------------
    A-4-----2--------0---------------
    E--------------------------------
      C#    B        A
    Y LUEGO ESTA FIGURA
    G---------------------------------
    D-------6-6--------99-------------
    A--7--7-----77--7-----------------
    E---------------------------------
    
    VERSO1 (SE TOCA DOS VECES): Chico mendez lo mataron...
    G---------------------------------
    D---6--6------66-----4--4-----44--
    A-4-----4--44-------2----2-22-----
    E---------------------------------
      C#                B
    G-------------------------------------------
    D-----------------
  • G|----|-----|-----|------------------4-4------------------|
    D|----|-----|-----|-------6-6------6---------6-6----------|
    A|-4--|--2--|-----|-6-7-------7-7---------7------7-7--6---|
    E|----|-----|-5---|---------------------------------------|
    
    
    
    Verso 1
    
    
    G|-----------------|-------------------|----------------4-|
    D|----6-6------6---|-------------------|------------4-4---|
    A|-4------4-4----4-|----6-6------6-6---|----4-4-----------|
    E|-----------------|-7------7-7------7-|-5------5-5-------|
    
    A chico Méndez lo mataron... era un defensor y un ángel...
    
    
    G|-----------------4-4-|--------------------|
    D|------6-6------6-----|-----6-6------6-----|
    A|--7-------7-7--------|-7-------7-7--------|
    E|---------------------|--------------------|
    
    
    de toda la amazonía...
    
    
    G|-----------------|-------------------|------------------|
    D|----6-6------6---|-------------------|----------------4-|
    A|-4------4-4----4-|----6-6------6-6---|----4-4-----4-4---|
    E|-----------------|-
  • +
    ¡Colabora con nosotros!
    Envíanos tu versión de esta canción

Cuando los Angeles Lloran (unplugged) Lyrics
A Chico Mendez los mataron
era un defensor un angel
de toda la Amozonia
El murio a sangre fria
lo sabia Color de Melo
y tambien la policia
Cuando los angeles lloran
lluvia cae sobre la aldea
lluvia sobre el campanario
pues alguien murio
Un angel cayo
un angel murio
un angel se fue
y no volvera
Repite los versos y el coro
Un angel cayo
un angel murio
un angel se fue
se fue volando en madrugada
Cuando los angeles lloran
Cuando los angeles lloran
llovera
Cuando los angeles lloran
Cuando los angeles lloran
llovera....
Acordes:
Nos vemos saludos




[Cuando los Angeles Lloran (unplugged) acordes][Cuando los Angeles Lloran (unplugged) cifra]
© LaCuerda.net · legal notice · privacy · es · en · pt · contact us
DINAMICO