Guitar Chords » M »Maná » Como te deseo (Tab)

Como te deseo
Maná

Lyrics, Chords & Tabs for Guitar, Bass & Ukulele

  •  G                 C         D
    Como yo te deseo, na nana nana na
     G                 C         D              
    como yo te adoro, na nana nana na
     G                 C         D
    Como yo te deseo, na nana nana na
     G                 C         D
    como yo te adoro, na nana nana na
    
    
     Am        F            C
    Mariposas bailan en mi pecho
          G            Am     F  C G
    el calor no se dispersa amor
    Am       F            C  
    oye nena te quiero besar
             G          Am    F  C G
    de los pies a la cabeza amor
    
    
    
  • A5                 D         E
    Como yo te deseo, na nana nana na
     A5                D          E              
    como yo te adoro, na nana nana na
     A5                D          E
    Como yo te deseo, na nana nana na
     A5                D          E
    como yo te adoro, na nana nana na
    
    
     Bm        G            D
    Mariposas bailan en mi pecho
          A            Bm     G  D A
    el calor no se dispersa amor
    Bm       G            D  
    oye nena te quiero besar
             A          Bm    G  D A
    de los pies a la cabeza amor
    
    
    
  • Intro:
    
    ::SIN TOCAR::
    
    Como yo te deseo.
    Na, na, na, na, na.
    Como yo te adoro.
    Na, na, na, na, na.
    
    1. Como yo te deseo.
    2. Como yo te adoro.
    e-------0-----------0--|-------0-----------0--|
    b----------0-----0-----|----------0-----0-----|
    g-------------2--------|-------------2--------|
    D----2-----------------|----2-----------------|
    A—0--------------------|—0--------------------|
    E----------------------|----------------------|
    
    1. Na, na, na, na, na.
    2. Na, na, na, na, na.
    e-----------|-----------0--|
    b--------0--|--------0-----|
    g-----2-----|-----1--------|
    D—-0--------|--2-----------|
    A-----------|--------------|
    E-----------|--------------|
    
    ::Tocen esto repetidamente durante estos versos::
    
    e--------------|--------0--------|--------------|--------0--------|
    b--------3-----|-----------0-----|--------3-----|-----------0-----|
    g.----------4--|--------------0--|-----2-----2--|-----2--------2-.|
    D.----4--------|-----0-----------|--0-----------|---------
  • INTRO:
    e) ---0----0-----0---0----------------------0
    b) ---------------------------------------0--
    g) --2---2-----2---2-------2---2--4-----1----
    d) --------------------------0---------------
    a) -----------------------------------x------
    e) ------------------------------------------
    
    Eso se repite dos veces y después cuando dice:
    'mariposas bailan en mi pecho....' en ese mometo va
    esto
    
    VERSOS:
    
    e) ------------------0-----------------------0----
    b) ------3-------------0-------------3---------0--
    g) ---------4------------0---------2---2---------2
    d) ---4-------------------------0-----------------
    a) –2-------------------------------------0-------
    e) --------------3--------------------------------
    
    Esto se rpite varias veces
    
    CORO:
    e) -------------------------------x—2-2-x-3-3—x-x-0-0
    b) --------3------------3-3-------x—3-3-x-3—3-x-x-2-2
    g) --2-2-4---4----2-2-4-----4-----x—2-2-x-4-4—x-x-2-2
    d) --------------------------------------------------
    a) ------
  • A5                D5      E/Eb
    Como yo te deceo  naranananana
    A5                D5      E/Eb
    como yo te adoro  naranananana
    (CON ESTE ARPEGIO ACOMPAÑA LA ELECTRICA EN LO ANTERIOR)
    1.-----0-----------0--------0----------0--2-2---0-0----|
    2.-------0--------------------0-----------3---3-0---0--|
    3.---2-----2----2---------2-----2----2----2-----1------|
    4.-2----------2---------2----------2------0-----2------|
    5.-----------------------------------------------------|
    6.-----------------------------------------------------|
      VERSOS:
    (EN ESTE VERSO NO RASGUIDO SOLO LA GUITARRA ELECTRICA VA
    HACIENDO ESTE ARPEGIO)
    1.------------------0-----------------------0----|
    2.------3-------------0-------------3---------0--|
    3.---------4------------0---------2---2---------2|
    4.---4-------------------------0-----------------|
    5.-2-------------------------------------0-------|
    6.--------------3--------------------------------|
    
  • Intro (empieza cuando diga por segunda vez: 'como yo te deseo...')
    G|---------------------------|
    D|---------------------------|
    A|-----------------5-5--7-7--| x2 
    E|-5-5---5-5-5-5-------------|
    
    Verso (se toca cuando dice 'me prendes tanto...')
    G|------------------------------------|
    D|------------------------------------|
    A|-5--5-------------------------------| x4
    E|---------5-5-5-5----7--7----3--3-3--|
                    
    Coro ('te deseo..aha..aha..u..ha')
    G|---------------------------------------|
    D|---------------------------------------|
    A|-5--5----------------------------------| x6
    E|---------5-5--5-5----7--7----3-3--3-3--|
    
    Pos-Coro (despues de 'es el pumpin pumpin de mi corazon...')
    G|---------------|
    D|---------------|
    A|---------------|
    E|--3-3--5--3-5--|
    
    [Coro x8] Se toca el coro aunque este cantando la parte del Verso
    
    Puente
    G|--------------------------------------------|
    D|--------------------------------------------|
    A|-5-5-5------------------
  • +
    ¡Colabora con nosotros!
    Envíanos tu versión de esta canción

Como te deseo Lyrics
Como yo te deseo, na nana nana na
como yo te adoro, na nana nana na
Como yo te deseo, na nana nana na
como yo te adoro, na nana nana na
Mariposas bailan en mi pecho
el calor no se dispersa amor
oye nena te quiero besar
de los pies a la cabeza amor
No aprietes tanto
soy un lobo hambriento
y la luna suelta el llanto
en mis pupilas
entras desnuda
siento que me ahogo en tu sudor
te deseo mas!
Te deseo, aha aha uh ha
yo te quiero, ohh yeah
Te deseo, aha aha uh ha
yo te quiero.
Un tambor sono muy africano
ese ponpin ponpin de tu corazon.
Un tambor sono muy mexicano
ese ponpin ponpin de tu corazon.
No aprietes tanto
soy un lobo hambriento
y el calor no se dispersa
no se dispersa amor.
Te abrazo fuerte
no abras los ojos
ahi entonces bailaras
en mi pecho amor.
te deseo mas!

Te deseo, aha aha uh ha
yo te quiero, ohh yeah
Te deseo, aha aha uh ha
yo te quiero.
Como yo te deseo...




[Como te deseo acordes][Como te deseo cifra]
© LaCuerda.net · legal notice · privacy · es · en · pt · contact us
DINAMICO