Guitar Chords » L »Luis Fonsi » Despacito (Tab)

Despacito
Luis Fonsi

Lyrics, Chords & Tabs for Guitar, Bass & Ukulele

  • Bm                            G
    Si,sabes que ya llevo rato mirándote
    D                         A
    Tengo que bailar contigo hoy (DY)
    Bm                             G
    Vi que tu mirada ya estaba llamándome
    D                          A
    Muéstrame el camino que yo voy (Oh)
    
    Bm                                G
    Tú, tú eres el imán y yo soy el metal
                                      D
    Me voy acercando y voy armando el plan
                                    A
    Solo con pensarlo se acelera el pulso (Oh yeah)
    Bm                                 G
    Ya, ya me está gustando más de lo normal
                                     D
    Todos mis sentidos van pidiendo más
                                      A
    
  • Bm                              G
    Sí, sabes que ya llevo rato mirándote
    D                         A
    Tengo que bailar contigo hoy
    Bm                             G
    Vi que tu mirada ya estaba llamándome
    D                           A
    Muéstrame el camino que yo voy (Oh)
    
    ***
    
    Bm                                G
    Tú, tú eres el imán y yo soy el metal
                                       D
    Me voy acercando y voy armando el plan
                                       A
    Solo con pensarlo se acelera el pulso (Oh yeah)
    
    
    Bm                                    G
    
  •    Bm                 G                 D                 A
    1|------2-------2---|-----3-------3---|-----3-------3---|-----0-------0---|
    2|--------3-------3-|-------3-------3-|-------2-------2-|-------2-------2-|
    3|----4-------4-----|---0-------0-----|---3-------3-----|---2-------2-----|
    4|------------------|-----------------|-0-------0-------|-----------------|
    5|-2--------2-------|-----------------|-----------------|-0-------0-------|
    6|------------------|-3-------3-------|-----------------|-----------------|
       Arpegio 02
       Bm                G                 D                 A
    1|-2---2-------2---|-3---3-------3---|-3---3-------3---|-0----0-------0---|
    2|-3-----3-------3-|-3-----3-------3-|-2-----2-------2-|-2------2-------2-|
    3|-4-4-------4-----|-0-0-------0-----|-3-3-------3-----|-2-2--------2-----|
    4|-4---------------|-0---------------|-0-------0-------|-2----------------|
    5|-2-------2-------|-0---------------|-----------------|-0--------0-------|
    6|-----------------|-3-------3-------|-----------------|------------------|
    
    1|-7-10-9-7----7-|-7-9-10-12-14----14----14----|------10---9---7-|
    2|-7--------10---|--------------15----15----15-|-----------------|
    3|-7-------------|-----------------------------|-9/11----9---7---|
       Arpegio 02
    
  • |-7---10--9--7------7-|-7--9--10--12--14----14----14-|
    |-7-------------10----|-7----------------15----15----|
    |-7-------------------|-7----------------------------|
    |---------------------|------------------------------|
    |---------------------|------------------------------|
    |---------------------|------------------------------|
    
    
    
    |------10------9-----7-|-10--9--7--------|
    |----------------------|-----------10--8-|
    |-s11-----s9-----s7----|-----------------|
    |----------------------|-----------------|
    |----------------------|-----------------|
    |----------------------|-----------------|
    
    
    |----10--9--7--9--10-----|-----10--9--10-12-12-|
    |-8-------------------10-|-10------------------|
    |------------------------|---------------------|
    
  • e---2----2----2-----2-----3-----3-----3-----3---|
    B-----3----3----3-----3-----3-----3-----3-----3-|
    G-4----4----4-----4-----4-----4-----4-----4-----|
    D-----------------------------------------------|
    A-----------------------------------------------|
    E-----------------------------------------------|
    
    
    e---2-----2-----2-----2----0-|
    B-----3-----3-----3-----3--2-|
    G-2-----2-----2-----2------2-|
    D--------------------------2-|
    A----------------------------|
    E----------------------------|
    
    
    e--2--2-----2-----|-3--3-----3------2--2-----2------0|
    B--3----3-----3---|-3----3-----3----3----3-----3----2|
    G--4------4-----4-|-4------4-----4--2------2-----2--2|
    D--4--------------|-----------------0---------------2|
    
  • +
    ¡Colabora con nosotros!
    Envíanos tu versión de esta canción
  • Tutorial
    HD
    Como tocar Despacito Cover en Guitarra Acordes
    2:42
  • Tutorial
    HD
    Tablatura de Despacito - Luis Fonsi - Daddy Yankee
    3:45
  • Tutorial
    HD
    Despacito Luis Fonsi Ft. Daddy Yankee Cómo Tocar En Guitarra
    6:08
  • Tutorial
    HD
    Despacito Luis Fonsi ft. Daddy Yankee acordes guitarra tutorial
    2:09
  • Tutorial
    HD
    Como Tocar Despacito De Luis Fonsi y DY En Guitarra Para Principiantes Fácil Acordes Tabs
    7:10

Despacito Lyrics
Si,sabes que ya llevo rato mirándote
Tengo que bailar contigo hoy (DY)
Vi que tu mirada ya estaba llamándome
Muéstrame el camino que yo voy (Oh)
Tú, tú eres el imán y yo soy el metal
Me voy acercando y voy armando el plan
Ya, ya me está gustando más de lo normal
Todos mis sentidos van pidiendo más
Esto hay que tomarlo sin ningún apuro
Despacito Quiero respirar tu cuello despacito
Deja que te diga cosas al oido
Para que te acuerdes si no estás conmigo
Despacito Quiero desnudarte a besos despacito
Firmo en las paredes de tu laberinto
Y hacer de tu cuerpo todo un manuscrito
Sube sube
Sube, sube, sube
Quiero ver bailar tu pelo
Quiero ser tu ritmo
Que le enseñes a mi boca
Tus lugares favoritos
Déjame sobrepasar tus zonas de peligro
Hasta provocar tus gritos
Y que olvides tu apellido
(Daddy Yankee) Bm G D A
Si te pido un beso ven dámelo
Yo sé que estás pensandolo
Llevo tiempo intentandolo
Mami esto es dando y dandolo
Sabes que tu corazón conmigo te hace bom bom
Sabes que esa beba está buscando de mi bom bom
Ven prueba de mi boca para ver como te sabe
quiero quiero ver cuanto amor a ti te cabe
Yo no tengo prisa yo me quiero dar el viaje
Empecemos lento, después salvaje
Pasito a pasito, suave suavecito
Nos vamos pegando, poquito a poquito
Y es que esa belleza es un rompecabezas
Pero pa montarlo aquí tengo la piesa
Pasito a pasito, suave suavecito
Nos vamos pegando, poquito a poquito
Y es que esa belleza es un rompecabezas
Pero pa montarlo aquí tengo la pieza
Despacito Quiero respirar tu cuello despacito
Deja que te diga cosas al oido
Para que te acuerdes si no estás conmigo
Despacito Quiero desnudarte a besos despacito
Firmo en las paredes de tu laberinto
Y hacer de tu cuerpo todo un manuscrito
Sube sube
Sube, sube, sube
Quiero ver bailar tu pelo
Quiero ser tu ritmo
Que le enseñes a mi boca
Tus lugares favoritos
Déjame sobrepasar tus zonas de peligro
Hasta provocar tus gritos
Y que olvides tu apellido
Despacito
Vamos a hacerlo en una playa en Puerto Rico
hasta que las olas griten Ay Bendito
Para que mi sello se quede contigo
Pasito a pasito, suave suavecito
Nos vamos pegando, poquito a poquito
(Que le enseñes a mi boca Tus lugares favoritos)
Pasito a pasito, suave suavecito
Nos vamos pegando, poquito a poquito
(Hasta provocar tus gritos Y que olvides tu apellido )
Espero que les haya gustado! Saludosdesde santiago, chile!




[Despacito acordes][Despacito cifra]
© LaCuerda.net · legal notice · privacy · es · en · pt · contact us
DINAMICO