Guitar Chords » L »Líbido » Invencible (Tab)

Invencible
Líbido

Lyrics, Chords & Tabs for Guitar, Bass & Ukulele

  •     A       D      A     D
    Invencible puedes ser tu
         A            D    A     D
    Sueles odiar tus miedos
        A       D      A      D
    Tus sueños siempre tu
          A    D          A        
    (Pre Coro)
    
      Y vuelves otra vez a inventar
    E           D                E   
        Quieres sentirte bien y verte bien, bien
                     D
    (Coro) 
    
        No es mas que una actuación
    F#m        E         A          D
        El pedir perdon 
    F#m        E      A       B
        No te hace falta sonreir
    
  •        A       D
     e||------------2--------||
     B||---2----------3------|| este arpegio es durante
     G||-----2---------------|| toda la canción en las 
     D||-2--------0----------|| notas  La(A) y Re(D)
     A||---------------------||
     E||---------------------||
    
    
                 A       
     e||---------0-----------||
     B||---2-------2---2-----|| este arpegio va antes de 
     G||-----2-------2-------|| entrar al pre - coro
     D||-2-----2-------------|| 
     A||---------------------||
     E||---------------------||
           
     e||-14-14-12-10-9-10-9----||
     B||-------------------10--||  
     G||-----------------------|| se repite 2 veces al
    
  • Verso x7
    G |------------|
    D |------------|
    A |-----5555---|
    E |--55--------|
    
    Antes del Pre coro
    G |------------|
    D |------------|
    A |------------|
    E |--55-5579---|
    
    Pre coro
    G |----------------------------------------|
    D |----------------------------------------|
    A |--77-7777-55-5555-77-7777-55-5555-------|
    E |----------------------------------------|
    
    Coro
    G |--------------------------------------------|
    D |--------------------------------------------|
    A |-------------555----------------------------|
    E |--222-000-55----5-222-000-55-7779-----------|
    
    G |--------------------------------------------|
    D |--------------------------------------------|
    A |-------------555----------5~---------------|
    E |--222-000-55----5-222-000-------------------|
    
    Antes del segundo verso
    G |---------------|
    D |---------------|
    A |--5p4----------|
    E |------5~--5/9~-|
    
    Repetir Verso x7
    
    Pre coro
    G |-----------------------------------------------|
    D |--------------------
  • +
    ¡Colabora con nosotros!
    Envíanos tu versión de esta canción

Invencible Lyrics
Invencible puedes ser tu
Sueles odiar tus miedos
Tus sueños siempre tu
(Pre Coro)
Y vuelves otra vez a inventar
Quieres sentirte bien y verte bien, bien
No es mas que una actuación
El pedir perdon
No te hace falta sonreir
Y dejar ver tras tus ojos
Toda esa estupida decrepitud
Hablar y andar fingiendo
Pides mas pides tu
(Pre Coro)
Heyyy
No te hace falta sonreir




[Invencible acordes][Invencible cifra]
© LaCuerda.net · legal notice · privacy · es · en · pt · contact us
DINAMICO