Guitar Chords » L »la Ley » Mentira (unplugged) (Tab)

Mentira (unplugged)
la Ley

Lyrics, Chords & Tabs for Guitar, Bass & Ukulele

  • Am - C - G 
    
      
      Am
    Mentira mi vida 
        C             G
    lo que se da y no se mira
       Am
    mentira fundida
         C               G
    por miel que evaporo mi piel
         Am
    mentira prohibida
        C           G
    debilidad que me domina
       Am
    mentira vivida
        C          G
    no quiero mas mentirte
                      D
    
  • LA ley
    Mentira (Unplugged)
    
    Intro:
         Am
    1º--  x-- |-----------------------------------------------|--------------------|
    2º--  1-- |------0-0~1-1-3-5-3-3-3-3-1-0-1-0------|---------------------|
    3º--  2-- |----2------------------------------------2---- |---0-2-0----------|
    4º--  2-- |--2----------------------------------------2- |--2-------2~0~2--|
    5º--  0-- |-----------------------------------------------|--------------------|
    6º--  x-- |-----------------------------------------------|--------------------|
    
    
    Am
    Mentira mi vida,
    C            G
    lo que se da no y  se mira.
    Am
    Mentira fundida,
    C            G
    
  •     Am
    1 --0----0-----------------------------------------------------
    2 --1-----1----------------------------------------------------
    3 --2------2------------------7-9-7-7--5h7p5-4-4---------------
    4 --2---------------7-9-10-10--------------------6h7-----------
    5 --0------------/7----------------------------------5h7-------
    6 -------------------------------------------------------------
                                   Mentira...
    1 ---------------------------------0---------------------------
    2 ---------------------------------1---------------------------
    3 ---------------------------------2---------------------------
    4 -----5-7-5-5---------------------2---------------------------
    5 -5h7----------5h7--5-3--5/7-5-3--0---------------------------
    6 -------------------------------------------------------------
    
    Hay arreglos en toda la canción pero iremos directamente al solo
    
    SOLO
    
    1 --------------------------------------------------------------
    
  • Esto es el verdadero Intro y solo de la cancion Mentira, 100% 
    de oido, muy correcta. Los que mandaron otras transcripciones 
    de esta cancion, estan muy mal, sigan esta transcripcion es muy 
    muy, correcta, practinquenla.
    
    
    INTRO           0:04                                0:08
        Am            
    1 -----0-0-----------------------------------------------
    2 ----1---0-1--------------------------------------------
    3 --2----------------4-4h5-5--7-9-7--7/5-5-4-4h5-4-------
    4 --2---------------7------------------------------7-----
    5 -0------------5h7----------------------------------5/7-
    6 -------------------------------------------------------
                                   Mentiraaaa......
    1 -------------------------------------------------------
    2 -------------------------------------------------------
    3 -------------------------------------------------------
    4 -----5-7-5-5-------------------------------------------
    5 -5h7----------5/7-5-3-5/7-5-3-2-0-------------------
  • Am - C - G         Amm C - G       **varias veces**
    E|------------------------------------------------------------------|
    B|------------------------------------------------------------------|
    G|-------5-5--7-9-7-7-7p5-4-4---------------------------------------|
    D|---7-9-----------------------7--------7-9-5-5---------------------|
    A|-7-----------------------------5p7--7---------7-5---7-5-(3)-------|
    E|--------------------------------------------------8---------------|
    
    
    E|---------|-------------|---------------|--------------|-----------|
    B|---------|-------------|---------------|--------------|-----------|
    G|---4-4-5-|-5-5-7-7-7/9-|---------------|---4-----4-5--|---7p9-7---|
    D|---------|-------------|---9-9-7-5-----|-----7--------|-----------|
    A|---------|-------------|-----------7---|-7-----7------|-----------|
    E|---------|-------------|---------------|--------------|-----------|
    
    
    E|--5-5--7--8--8/12--|----------------------------|--7-7--5---------|
    B|-------------------|----------------------------|---------8-5-----|
    G|-------------------|---9--9---8--7--5--5p7-7/9--|-----------------|
    
  • E|------------------------------------------------------------|
    B|------------------------------------------------------------|
    G|-------5-5--7-9-7-7-7p5-4-4---------------------------------|
    D|---7-9-----------------------7--------7-9-5-5---------------|
    A|-7-----------------------------5p7--7---------7-5---7-5-(3)-|
    E|--------------------------------------------------8---------|
    
    
    
          0:16 |    0:23     |      0:30     |     0:37     |   0:44    |
    E|---------|-------------|---------------|--------------|-----------|
    B|---------|-------------|---------------|--------------|-----------|
    G|---4-4-5-|-5-5-7-7-7/9-|---------------|---4-----4-5--|---7p9-7---|
    D|---------|-------------|---9-9-7-5-----|-----7--------|-----------|
    A|---------|-------------|-----------7---|-7-----7------|-----------|
    E|---------|-------------|---------------|--------------|-----------|        
    
             0:59        |           1:05             |     1:19     |
    E|--5-5--7--8--8/12--|----------------------------|--7-7--5------|
    B|-------------------|----------------------------|---------8-5--|
    
  • Am - C - G         Amm C - G       **varias veces**
    E|------------------------------------------------------------------|
    B|------------------------------------------------------------------|
    G|-------5-5--7-9-7-7-7p5-4-4---------------------------------------|
    D|---7-9-----------------------7--------7-9-5-5---------------------|
    A|-7-----------------------------5p7--7---------7-5---7-5-(3)-------|
    E|--------------------------------------------------8---------------|
    
         
    E|---------|-------------|---------------|--------------|-----------|
    B|---------|-------------|---------------|--------------|-----------|
    G|---4-4-5-|-5-5-7-7-7/9-|---------------|---4-----4-5--|---7p9-7---|
    D|---------|-------------|---9-9-7-5-----|-----7--------|-----------|
    A|---------|-------------|-----------7---|-7-----7------|-----------|
    E|---------|-------------|---------------|--------------|-----------|        
    
                
    E|--5-5--7--8--8/12--|----------------------------|--7-7--5---------|
    B|-------------------|----------------------------|---------8-5-----|
    G|-------------------|---9--9---8--7--5--5p7-7/9--|-----------------|
    
  • Esta rola tiene un bajo my facil solo hay que agarrar
    bien los tiempos...
    
     Mentira...  ( Todas las estrofas y solo de acustica )
        Am         C            G   
    G|------------|------------|------------|
    D|------------|------------|------------|
    A|--00----00--|3-------3-2-|--------5---|
    E|-----0h3---3|------------|3----3------|
    
     Amor...
      E1 ( G )     E2 ( A )     E3 ( B )        
    G|------------|------------|---------9s4|
    D|------------|------------|-----9-11---|
    A|------------|5--5--5--5--|-7-11-------|
    E|3--3--3--3--|------------|------------|
    
     Coro ( Mi corazon... )
      E4(C) E3(B)  E2(A) E3(B)  E4(C) E3(B)  E
    G|------------|------------|------------|------------|
    D|------------|------------|------------|-------2----|
    A|10----9--9--|7--7---9--9-|10-10--9--9-|------------|
    E|------------|------------|------------|0-----------|
    
     Ultimas dos vueltas del coro...
      E4 ( c )     E3 ( B )     E2 ( A )     E3 ( B )
    G|------------|------------|------------|-------
  • La canción es muy fácil , los breaks  los dejo a su juicio,
    pueden usar los mismos que son fáciles, o pueden usar su 
    creatividad y meter unos mas chidos, mientras no rompan 
    con el orden de la rola y ni caigan fuera de tiempo…
    
    
    verso
    
    h |---x--—x—--x—--x--—x--—x--—x—--x---|
    a |-----------z---------------z-------|   ||:    
    b |---o-----------o-------------------|
    
    amor solamente...
    
    h |---x--—x—--x—--x--—x--—x--—x—--x---|
    a |-----------z-----------------------|   ||:    
    s |---------------------------X-------|
    b |---o-----------o-------------------|
    
    mi corazón...
    
    h |---x--—x—--x—--x--—x--—x--—x—------|
    sp|------------------------------x----|   ||:    
    s |-----------X---------------X-------|
    b |---o---------------o---o-----------|
    
    *en el solo de guitarra haces el mismo ritmo de en medio 
    pero sin bombo, en el ride y con ar
  • +
    ¡Colabora con nosotros!
    Envíanos tu versión de esta canción
  • Tutorial
    Acordes - Mentira - La Ley
    8:15

Mentira (unplugged) Lyrics
Mentira (Unplugged)
Mentira mi vida,
lo que se da no y se mira.
Mentira fundida,
con miel que evaporo mi piel.
Mentira prohibida,
devilidad que me domina.
Mentira mi vida,
no quiero mas mentirte...
Amor, solamente encontré,
en el suplicio de volverte.
Mentira vendida,
modalidad que me intoxica.
Mentiras con vida,
flajelo de mi corazón.
Olvida mentira,
las tentaciones destructivas.
Mentira medida,
no quiero mas mentirte...
Amor, solamente le pedí,
regreso para devolverte.
Mi corazón, late por ti,
dentro de mi.
Mi corazón, nunca dejó,
tu corazón.
Mentira servida,
el vino y pan de cada día.
Mentira atrevida,
bolero de mi corazón.
Amarga saliva,
sabor a culpa y agonía.
Mentira divina,
no quiero mas mentirte...
Amor, solamente le encontre
en el suplicio de volverte...




[Mentira (unplugged) acordes][Mentira (unplugged) cifra]
© LaCuerda.net · legal notice · privacy · es · en · pt · contact us
DINAMICO