Guitar Chords » L »Leiva » Vis √† vis (Tab)

Vis à vis
Leiva

Lyrics, Chords & Tabs for Guitar, Bass & Ukulele

  • Em C G D / Em C Am D
    
    
                 Em
    Que bonito mirar
                    D         C
    la sombra que hacen las rejas
                         G
    mientras meto las orejas
                         D
    en el centro de tu andar.
                          Em
    Si el mundo esta del revés
                  D       C
    habr√° que buscar cordura,
                     Am
    y una pizca de locura
           D             C   Dadd9
    para saber quererte m√°s.
    
    
  • Em:     022000        D:    x00232
    Em7:    022030    Dadd9:    x54030
    Em11:   024000      G/B:    x20033
    Cmaj7:  032000      Am7:    x02010
    C/G:    332010   Am7/F#:    2x2010
    Cadd9:  x32033        G:    320033
    D7:     x00212    Csus2:    x30010
    
    
    Cejilla 4¬ļ traste
    
    
    INTRO: Em - Cmaj7 - Em11    - (F#¬ļ)-Em - Dadd9(4) - Cmaj7
              - G/B - Am7 - Am7/F# - Em11 - (A)(Bb)B7
    
       Em     G F# E B    Cmaj7      (arpeggio)  Em11      (arpeggio)
    e|----------3-2-0----------------------------------------------------
    B|------0---0-0-0-0------------0-------------------------------------
    G|------0---------0------------0--------------------0----------------
    D|--------------------------2---------------------4------------------
    
  •         Em             DOadd7         MImadd9
    e|----0---0----3--2--0------0--0--0-----------------------------------------
    B|--------0----0--0--0-0----0--0--0-----0-----------------------------------
    G|-2s4----0----0--0--0--0---0--0-------0-----0------0----------0----0-------
    D|------2-----------------------------2-----4-4----4-4-----7s5--5--4--4h5p4-
    A|------2-----------------3----------3-----2---2--2--------9s7----5--5-----5
    E|------0----0----------------------------0--------------0------------------
    
      DOadd7    MIm         LAm7    LAm7/FA#    MIm         SI7
    e|---0-----------------------------------------------------------2-----------
    B|---0-----------------------1---------1------------0------------0-----------
    G|---0-------0---------------0---------0-------------0-----------2-----------
    D|------2---0---0h2p0------2----------2-------------2------------1-----------
    A|-3---3---2--2------2---0-------------------------------0-1-2---2-----------
    E|----------------------------------2-------------0--------------x------------
    
                 MIm
    Que bonito mirar
                             DO/SOL
    la sombra que hacen las rejas
    
  • +
    ¬°Colabora con nosotros!
    Envíanos tu versión de esta canción
  • Tutorial
    HD
    Intro de Vis a vis, Leiva, tutorial guitarra
    4:46

Vis à vis Lyrics
Que bonito mirar
la sombra que hacen las rejas
mientras meto las orejas
en el centro de tu andar.
Si el mundo esta del revés
habr√° que buscar cordura,
y una pizca de locura
para saber quererte m√°s.
Ayer te escribí una carta,
hoy te escribo esta canción.
Ma√Īana tenemos cita
le roban tiempo al amor.
Volaremos sin movernos,
y donde haya que firmar
me har√© una peque√Īa herida
con sangre que abarca el mar
Para dejar por escrito, que no voy a abandonar..
Y ponerle sangre al grito, de los que aman sin poder amar.
Para dejar por escrito, que no voy a abandonar..
Y ponerle sangre al grito, de los que aman sin poder amar.
Esta voz no hay quien la calle.
Ni la pared ni el cristal,
Fuera se te hecha de menos,
Anda llorando la libertad.
Y después nos dejaremos,
Si nos queremos dejar,
a ellos nunca les dejamos
sus cadenas son de sal..
De una sal que se deshace
con mas lagrimas de sal,
de tu quejido y el mío
en bis a bis quincenal
en bis a bis quincenal
en bis a bis quincenal...
Para dejar por escrito, que no voy a abandonar..
Y ponerle sangre al grito, de los que aman sin poder amar.
Para dejar por escrito, que no voy a abandonar..
Y ponerle sangre al grito, de los que aman sin poder amar.
De los que aman sin poder amar...
Creo que así es un poco más fácil que las otras transcripciones. Disfrutadla
-PolisNones-




[Vis à vis acordes][Vis à vis cifra]
© LaCuerda.net · legal notice · privacy · es · en · pt · contact us
DINAMICO