Guitar Chords » K »Kjarkas » El picaflor (Tab)

El picaflor
Kjarkas

Lyrics, Chords & Tabs for Guitar, Bass & Ukulele

  • LAm MIm REm MI7
    LAm MIm REm MI7
    DO SOL REm MI7
    DO SOL REm MI7 LAm
    
    
    
    LAm                MIm        !
    Yo le robé a cada flor        ! 
    REm               MI7         !
    lo mejor para olvidarte       !
    LAm              MIm          !
    así como el picaflor          !
    REm                MI7        !
    he volado a todas partes      !
                                  !
                                  !   ( 2x )
    DO                 SOL        !
    Y en cada beso que daba       !
    REm             MI7           !
    
  •     LAm    MIm   REm    MI7
    MI -----0------0-----1------0-
    SI ----1-1----0-----3-3----0--
    SOL---2------0-----2------1---
    RE --2------2-----0------0----
    LA -0------2-----0------2-----
    MI --------------------------- (x2)
     DO     SOL   REm    MI7
    -----0------3-----1------0-
    ----1-1----0-----3-3----0--
    ---0------0-----2------1---
    --2------0-----0------0----
    -3------2-----0------2-----
    ---------------------------
     DO     SOL   REm    MI7
    -----0------3--------------0--
    ----1-1----0-----3--------1-1-
    ---0------0-----2----1---2----
    --2------0-----0----0---2-----
    -3------2----------2---0------
    
  • Hola Amigos! Esta es la tablatura para Charango de
    esta canción (versión Standar)
    Espero que les guste y que les sea de mucha utilidad.
    No te olvides de darme tu voto!
    
    
     LOS KJARKAS
     EL PICAFLOR
     ============
    
    
    
     E|---0---0-------------|---0-1-5-1-----1----1--||
     A|---------------------|-----------------------||
     E|-0-------------------|-------------------0-0-|| (2x)
     C|-----2---2---0-0h2-2-|-2-----------2---------||
     G|---------------------|-----------------------||
    
    
     E|-----0-------5---3-3-|---1---1----------------|
     A|---3-------3---------|-------------------2-2--|
     E|--0------------3-----|-0---0---0--------------|
     C|----2-2--------------|------------2-0-----0---|
     G|-0-------------------|------------------------|
    
    
     E|-----0-------5---3-3-|-0-1-0------------------|
     A|---3-------3---------|-------------2------2h0-|
     E|--0------------3-----|------------------------| (
  • +
    ¡Colabora con nosotros!
    Envíanos tu versión de esta canción

El picaflor Lyrics
Yo le robé a cada flor !
lo mejor para olvidarte !
así como el picaflor !
he volado a todas partes !
!
! ( 2x )
Y en cada beso que daba !
a mi mente regresabas !
reviviendo aquel amor !
que contigo yo sentí !
Primera vez que a mi vida
le golpeó duro el amor
primera vez que en mis venas
sentí el latir de ilusión
primera vez que no pude
decirle no al corazón
primera vez que no pude
decirle no al corazón
Acompañar la melodía en la zampoña:
Repetir desde la parte vocal una vez más




[El picaflor acordes][El picaflor cifra]
© LaCuerda.net · legal notice · privacy · es · en · pt · contact us
DINAMICO