Guitar Chords » K »El Kanka » Rin Rin (Tab)

Rin Rin
El Kanka

Lyrics, Chords & Tabs for Guitar, Bass & Ukulele

  •   E        A    E        A B A  E       A A  E        A B A
    e-------------------------------------------------------------
    b----0-----2-2-----0---------------0----0-0-----0-----24/2---
    g--1---1---2-2---1---1---24/2---1---1--2-2---1---1---24/2---
    D--2-------2-2---2-------24/2---2------2-2---2-------24/2---
    A--------------------------------2------------2---------------
    E-------------------------------------------------------------
    
    
        E               A             E
    Rin rin el despertador de las 7 y cinco
             A                 G#m7
    Yo me levanto pegando un brinco
          Am/F#            B9             B5
    Y maldiciendo al amanecer que me pone en pie
                   E              A               E
    y eso que es domingo los jubilados juegan al bingo
                A                     G#m7
    yo salgo a ver si con suerte me extingo
          Am/F#           B9       B5                  E    A   E
    
  •    E      A9      E     A9-B9
    e|--------------|-------------|
    b|---0------0---|---0---------|
    g|-1--1---2-----|-1--1--2/4/2-|
    D|--------------|-------2/4/2-|
    A|--------0-----|-------------|
    E|-0------------|-0-----------|
    
       E     A - A9    E     A
    e|--------------|--------0--0-|
    b|---0----2-0---|---0----2--2-|
    g|-1--1-------2-|-1--1--------|
    D|--------------|-------------|
    A|--------0-----|--------0--0-|
    E|-0------------|-0-----------|
    
    Riff
    
    A|----0--4-----|
    E|-2-----------|
    
  • +
    ¡Colabora con nosotros!
    Envíanos tu versión de esta canción

Rin Rin Lyrics
Riff
1)
Rin rin el despertador
de las 7 y 5 yo me levanto
pegando un brinco
y maldiciendo al amanecer
que me pone en pie
y eso que es domingo los jubilados
juegan al bingo y yo salgo a ver
si por surte me extingo
y ya no tengo que enfrentarme
con los tipos de interés
2)
Y voy abriéndome paso
entre las legañas, y discutiendo
con una araña
se me hace tarde por quinta vez
en lo que va
de semana, y pierdo el metro
y pierdo las ganas de cambiar el mundo
esta mañana
se me enfrían las tostadas
y se me amarga el café
Estribillo)
El día despierta, yo medio dormido
la cosa que arde, y yo muerto de frío
las calles me brindan su roto y su descosido, Y yo
desilachandome el corazón
desilachando el corazón mio
(Igual al 2)
Habrá que salir de casa con armadura
tener el móvil con cobertura,
llevar un arma por las dudas
cultivar la sangre fría,
apoyar la economía,
afeitarse cada día,
mantener la compostura,
rellenar un formulario,
cumplir todos los horarios,
respetar el calendario,
ni salidas del armario,
ni castillos de papel.
El día despierta, yo medio dormido
la cosa que arde, y yo muerto de frío
las calles me brindan su roto y su descosido, Y yo
desilachandome el corazón
desilachando el corazón mio
El día despierta, yo medio dormido
la cosa que arde, y yo muerto de frío
las calles me esquivan, yo prosigo mi camino, voy
desilachandome el corazón
desilachando el corazón mio
voy descosiendo mi corazón
Notas del transcriptor:
En el estribillo toco los acordes así,
al menos en la primer vuelta,
y las uso como variaciones aleatoriamente.
↓ ↓ ↓ ↓ ↓ ↓
Pueden seguirme en instagram y Twitter como @TuInmortal para contactarme.
Y solo queda volver a felicitarlos por la buena música que escuchan.
Jesús.
@TuInmortal




[Rin Rin acordes][Rin Rin cifra]
© LaCuerda.net · legal notice · privacy · es · en · pt · contact us
DINAMICO