Tab of Juan Carlos Alvarado: Cantaré al Señor por Siempre
Juan Carlos Alvarado  corregir
Hoy mas que ayer [1997]
INTRO

e|---------|-------------------------------------------------------|
B|------10-|-12-12-10-12--12-10-8-10-10-12-10--10-8-7-8-8--7-------|
G|-9-12----|-------------------------------------------------9-7-9-|

VERSO
"Cantaré al señor por siempre, su diestra es todo poder" y,
cuando repiten esta frase, se hace este arreglo:

e|------|------------------------------|
B|---7--|-8-10-12--10-12-13------------|
G|-9----|--------------------12--11--9-|

PRECORO
En "Echó, a la mar, los carros del faraón" va este arreglo:

e|-------------------------------|
B|----15---13-12-12---10--13--12-|
G|-14----------------------------|

Y en "lalalalalala, lalalalalala...", se toca otra vez el intro.



Alguna ayuda que quieran con alguna intro o solo:

saviour_king@msn.com

DLB
This file is the work if its transcriptor and it represents his/her own interpretation of the song. This material is intended for PERSONAL USE ONLY. It is strictly forbiden to copy, reproduce or retransmit the contents of this website. Legal actions will be taken if required.
© LaCuerda.net · legal notice · privacy · es · en · pt · contact us