Guitar Chords » J »José José » Del Altar A La Tumba (Tab)

Del Altar A La Tumba
José José

Lyrics, Chords & Tabs for Guitar, Bass & Ukulele

  • Am                E7 
    Te dije que te extraño
                     Am
    Te dije que te quiero
                   C7
    Y que me gusta mucho
                    F  
    El color de tu pelo.
             E7   
    Te dije que tu vida
                 Am  
    Y mi vida se juntan
                      B7  
    Que siempre seré tuyo
           F       E7 
    Del altar a la tumba.
    
                      Am
    Te dije que te extraño
                    Dm
    
  • E: Cuerda 1
    B: Cuerda 2
    G: Cuerda 3
    D: Cuerda 4
    A: Cuerda 5
    
    Dm7b5       Am7b5
    E:1        B:1
    B:1        G:0
    G:1        D:1
    D:0        A:0
    
    Se puede remplzar el Dm7b5 por un Dm y el Am7b5 por un Am
    Tiempo: 3/4
    
    G                   Dm7b5
      Te dije que te extraño
    G                Cm7
      Te dije que te quiero
                     Bbm7
    
  •                   Fm                 A#   D#                Cm
    1|-------12-13-15-16-------16-------16----15-------15-------15--|
    2|--13-15------------13-15----14-15----------11-13----12-13-----|
    3|--------------------------------------------------------------|
    4|--------------------------------------------------------------|
    5|--------------------------------------------------------------|
    6|--------------------------------------------------------------|
        Fm               G7    Cm               C7
    1|--13------13-------13----11-----11-------11--|
    2|-----9-11----11-12----------8-10---10-11-----|
    3|---------------------------------------------|
    4|---------------------------------------------|
    5|---------------------------------------------|
    6|---------------------------------------------|
                      Fm                A#    D#                Cm
    1|-------12-13-15-16-------16-------16----15-------15-------15--|
    2|--13-15------------13-15----14-15----------11-13----12-13-----|
    3|--------------------------------------------------------------|
    4|--------------------------------------------------------------|
    5|--------------------------------------------------------------|
    
  • +
    ¡Colabora con nosotros!
    Envíanos tu versión de esta canción

Del Altar A La Tumba Lyrics
Te dije que te extraño
Te dije que te quiero
Y que me gusta mucho
El color de tu pelo.
Te dije que tu vida
Y mi vida se juntan
Que siempre seré tuyo
Del altar a la tumba.
Te dije que te extraño
Te dije que te quiero,
Lo que en verdad es blanco
Sin ti parece negro.
Te dije que tu alma
y mi vida se buscan
que siempre seré tuyo
del altar a la tumba.




[Del Altar A La Tumba acordes][Del Altar A La Tumba cifra]
© LaCuerda.net · legal notice · privacy · es · en · pt · contact us
DINAMICO