Guitar Chords » G »Los Gardelitos » Envuelto en llamas (Tab)

Envuelto en llamas
Los Gardelitos

Lyrics, Chords & Tabs for Guitar, Bass & Ukulele

  • e|----5----7-----4--------0---|
    B|---7----9-----5-----3----2--|
    G|--6----8-----4-----2------1-|
    D|-7----9-----6-----4---------|
    A|-----------4-----2----0-----|
    E|----------------------------|
    
    Riif + Bm7  C#m7    x 2
    
    Riff
    Bm7
    Guardame un lugar,
    C#m7
    en tu corazon
    yo no se esperar
    fantasias en mi alma.
    
    A                   B C#m7 - Cm7
     Estoy envuelto en lla-mas
       Bm7            A7 
    
  • e|----5----7-----4--------0---|
    B|---7----9-----5-----3----2--|
    G|--6----8-----4-----2------1-|
    D|-7----9-----6-----4---------|  
    A|-----------4-----2----0-----|
    E|----------------------------|
    
    Riif + Bm7  C#m7    x 2
    
    Riff
    Bm7               
    Guardame un lugar, 
    C#m7
    en tu corazon
    yo no se esperar 
    fantasias en mi alma.
    
    F#m                G#m C#m7      Cm7
     Estoy envuelto en lla-mas
       B#7            A7 
    
  • Hola gente! Aca les dejo la intro, el puente y el solo de Envuelto
    Las notas no las dejo pque estaban perfectas nada mas faltaban los punteos
    Cualquier duda o consulta e23g11t89@hotmial.com
    Edgar.
    
    Intro:
    
    e|----5----7-----4--------0---|
    B|---7----9-----5-----3----2--|
    G|--6----8-----4-----2------1-|
    D|-7----9-----6-----4---------|
    A|-----------4-----2----0-----|
    E|----------------------------|
    
    Eli:
    
    E|-------------2...2...2-2---------4-4-4-|
    B|-------------3...3...3--3--------5-5-5-|
    G|-------------2...2...2---2-------4-4-4-|X2
    D|-------------4...4...4-----4/7-6-6-6-6-|
    A|-0-2-2h4-2-0-2...2...2-----------4-4-4-|
    E|---------------------------------------|
    
    Korneta(Electroacustica): sobre la base de Eli(la q esta arriba)
    
    e|-----------------4h5-4----|------------------4h5-4-5-7-4----|
    B|-------------5---------5--|--------5---5-7-7-------------5--|
    G|--------------------------|----4-6---6----------------------|
    D|--------------------------|-4h6-----------------------------|
    A|----------
  • +
    ¡Colabora con nosotros!
    Envíanos tu versión de esta canción

Envuelto en llamas Lyrics
Riff
Guardame un lugar,
en tu corazon
yo no se esperar
fantasias en mi alma.
Estoy envuelto en lla-mas
estoy quemandome, como un dios
Libre pero sin tu amor.
Guardame un lugar
en tu corazon
yo no se esperar
fantasias en mi alma
Estoy envuelto en llamas
estoy quemandome como un dios
Libre pero sin tu amor.
Hoy la gente silenciososa esta,
por el mundo misteriosa va
Un tren descarrilo en Estados Unidos
son quinientos los muertos
la temperatura es de cero grados
y esta lloviendo en la pampa.
(sigue con intro hasta que termina)
Riff
Acordes:




[Envuelto en llamas acordes][Envuelto en llamas cifra]
© LaCuerda.net · legal notice · privacy · es · en · pt · contact us
DINAMICO