Guitar Chords » E »Estopa » Pesadilla (Tab)

Pesadilla
Estopa

Lyrics, Chords & Tabs for Guitar, Bass & Ukulele

  • REm                    SOLm
    Desperte entre una multitud
              DO                    FA
    abri los ojos y supe que algo iba mal
          REm
    me temblaron las rodillas
                SOLm
    como en una pesadilla
                 LA#                 LA
    de esas que te cuesta tanto avanzar
    
    (Igual que la anterior)
    estaba en una patio sin luz
    no comprendia estaba fuera de lugar
    cuatro muros me cerraban
    cinco polis se acercaban
    si era un sueño yo queria despertar
    
    SOLm                   SOLm
    y yo que se...que hago aqui...
    
  • intro : REm - SOLm - DO - FA - SIb - MI - LA# - LA
    
    REm                    SOLm
    Desperte entre una multitud
              DO                    FA
    abri los ojos y supe que algo iba mal
          SIb
    me temblaron las rodillas
             MI
    como en una pesadilla
                 LA#                 LA
    de esas que te cuesta tanto avanzar
    
    ( repetir los mismos acordes )
    
    estaba en una patio sin luz
    no comprendia estaba fuera de lugar
    cuatro muros me cerraban
    cinco polis se acercaban
    si era un sueño yo queria despertar
    
  • esta canción se la dedico a mi colega er pelo,
     porque la sacamos con guitarra entre los dos.
    
    -----11--------------9--------------7-----------6---8---6---5---------
    -11------12--11--9-------11--9--7-------9---6-------------------------
    ----------------------------------------------------------------------
    ----------------------------------------------------------------------
    ----------------------------------------------------------------------
    ----------------------------------------------------------------------
    
    
    esta es la primera parte del punteo.
    
    -------------10----------------------------8--------------------------
    -10--10--10-------11--11--11--10--8--8--8-----10--10--10--8--6--6--6--
    ----------------------------------------------------------------------
    ----------------------------------------------------------------------
    ----------------------------------------------------------------------
    ----------------------------------------------------------------------
    
    
    
    -6-------
  • +
    ¡Colabora con nosotros!
    Envíanos tu versión de esta canción

Pesadilla Lyrics
Desperte entre una multitud
abri los ojos y supe que algo iba mal
me temblaron las rodillas
como en una pesadilla
de esas que te cuesta tanto avanzar
(Igual que la anterior)
estaba en una patio sin luz
no comprendia estaba fuera de lugar
cuatro muros me cerraban
cinco polis se acercaban
si era un sueño yo queria despertar
y yo que se...que hago aqui...
No puede ser...yo que hice ayer...
Que estoy esposado
seguro que todo tiene una explicacion
me llevaron a una habitación
me hicieron preguntas sin solucion
renegando a gritos yo me quede
y acabe pidiendo...la absolucion
no lo recuerdo...señor agente estoy trastornado
siempre he llevado un camino recto
seguro que alguien me ha hipnotizado...
Robado...o algo de eso
no entiendo...como he podido haberme olvidado
tengo una laguna en mis recuerdos
seguro que alguien me ha hipnotizado...
Pero mi mayor sorpresa fue
cuando quise acordarme de lo que hice ayer
y me resulto imposible...aunque parezca increible
estaba dentro de la carcel de un cuartel
de repente me desperte
la pesadilla parecia llegar al fin
con los ojos asustados
mire arriba y a los lados
y me di cuenta de que...
(Igual que antes)
Y yo que se...que hago aqui...
No puede ser...yo que hice ayer...
Que estoy esposado
seguro que todo tiene una explicacion
me habian llevado a una habitacion
me habian encerrado sin compasion
dentro de esta carcel apareci
desde aqui te canto yo esta cancion
no lo recuerdo...señor agente estoy trastornado
siempre he llevado un camino recto
seguro que alguien me ha hipnotizado...
Robado...o algo de eso
no entiendo...como he podido haberme olvidado
tengo una laguna en mis recuerdos
seguro que alguien me ha hipnotizado.............




[Pesadilla acordes][Pesadilla cifra]
© LaCuerda.net · legal notice · privacy · es · en · pt · contact us
DINAMICO