Guitar Chords » E »Estopa » Cuando cae la luna (Tab)

Cuando cae la luna
Estopa

Lyrics, Chords & Tabs for Guitar, Bass & Ukulele

  •                DO#m7
    1|------|------|------|----o-|------|
    2|------|----o-|------|------|------|
    3|------|------|------|--o---|------|
    4|------|------|----o-|------|------|
    5|------|------|------|------|------|
    6|------|------|------|------|------|
    
    
                  FA#m
    Cuando cae la luna
                                   FA#m7         SIm
    tu mueves el pelo, mueves las caderas como ninguna
                   MI
    cuando cae la  noche
                                                          LA
    yo me desespero tengo que encontrarte o me entran los dolores
                    RE
    cuando caen las horas
                                                              SIm
    
  • --------------------------------5-5*6-----------4-3-1---0-1-3----------------------------------
    ------------------------------------------------------2----------------------------------------
    -----------------------------------------------------------------------------------------------
    -----------------------------------------------------------------------------------------------
    -----------------------------------------------------------------------------------------------
    
    
    -10-10-10-10-8-6-5-5*6--8-8-8-8-6-5--3-3*5---6-6-6-6-5-3-1-1-----------0-1-3-5-6-8-10-11-8*10--
    -------------------------------------------------------------4---0-1-3-------------------------
    ---------------------------------------------------------------2-------------------------------
    -----------------------------------------------------------------------------------------------
    -----------------------------------------------------------------------------------------------
    -----------------------------------------------------------------------------------------------
    
    
                  MIm 
    Cuando cae la luna, tu mueves el pelo,
                  MI7         LAm
    mueves las caderas como ninguna.
                 RE
    
  • --------------------------------5-5*6-----------
    ------------------------------------------------
    ------------------------------------------------
    ------------------------------------------------
    ------------------------------------------------
    
    ------------------0-1-3-5-6-8-6*8*5--
    ---4-3-1---0-1-3--------------------
    -2-----------------------------------
    --------------------------------------
    --------------------------------------
    --------------------------------------
    
    
    -10-10-10-10-8-6-5-5*6--8-8-8-8-6-5--3-3*5---
    ---------------------------------------------
    ---------------------------------------------
    ---------------------------------------------
    ---------------------------------------------
    ----------------------------------------------
    
  • +
    ¡Colabora con nosotros!
    Envíanos tu versión de esta canción

Cuando cae la luna Lyrics
Cuando cae la luna
tu mueves el pelo, mueves las caderas como ninguna
cuando cae la noche
yo me desespero tengo que encontrarte o me entran los dolores
cuando caen las horas
piensa que es mi tiempo que se está muriendo este mal de amores
Piensa que en invierno es cuando se marchitan los corazones
Cuando te digan que me he pasado toa la vida
buscando tu negro pelo y tus dos blancas mejillas
el aire que respiras el aliento que da la vida
piensa que me estoy muriendo curandote las heridas
y yo te digo morena vente conmigo
¿no ves que me desespero?, escucha bien lo que digo
prometo llevarte al cielo si te acercas un poquito.
Cuando venga el viento
vienen los fantasmas a tocarme las palmas y a meterme miedo
cuando vengan dudas
preguntale al aire si soy un don nadie por verte desnuda
y no me arrepiento
de tanto sufrimiento si te tengo cerca duele mucho menos
porque en esta vida lo que tu me pidas me lo pide el cuerpo.
Cuando te digan que me he pasado toa la vida
buscando tu negro pelo y tus dos blancas mejillas
el aire que respiras el aliento que da la vida
piensa que me estoy muriendo curandote las heridas
y yo te digo morena vente conmigo
¿no ves que me desespero?, escucha bien lo que digo
prometo llevarte al cielo si te acercas un poquito.
y yo te digo morena vente conmigo
¿no ves que me desespero?, escucha bien lo que digo
prometo llevarte al cielo si te acercas un poquito.
Y como siempre esta canción se la dedico al amor de mi vida:
Nury que sepas que eres la persona que siempre he estado buscando
y ahora que te he encontrado no me arrepiento de nada,
porque contigo estoy fenomenal, TE QUIERO.-->Danny
Para cualquier cosilla: danny_braex@hotmail.com




[Cuando cae la luna acordes][Cuando cae la luna cifra]
© LaCuerda.net · legal notice · privacy · es · en · pt · contact us
DINAMICO