Guitar Chords » E »Enrique Bunbury » Enganchado a tí (Tab)

Enganchado a tí
Enrique Bunbury

Lyrics, Chords & Tabs for Guitar, Bass & Ukulele

  • --------0-7---5----- ------------------- ------0-7--8-4 --------------
    --6-5-4---------5- -5-5-4-5---8--6---- --6-5-4------- -5-5-4-5--8-6---
    ------------------ ------------------4 -------------- ---------------4
    ------------------ ------------------- -------------- ----------------
    ------------------ ------------------- -------------- ----------------
    ------------------ ------------------- -------------- ----------------
                    C
    Aunque me haga daño
                 Dm
    Aunque sea extraño
    G
    Aunque cuando no te tengo
                      C      E
    todo empieza a temblar
    
                    Am
    Aunque me hayas capturado
                Dm
    Dejé la vergüenza a un lado
    G
    
  • Am                 F                   Am             F
    --------7---5----- ------------------- --------7--8-4 ----------------
    --6-5-4---------5- -5-5-4-5---8--6---- --6-5-4------- -5-5-4-5--8-6---
    --x--------------- ------------------4 -------------- ---------------4
    --x--------------- ------------------- -------------- ----------------
    ------------------ ------------------- -------------- ----------------
    ------------------ ------------------- -------------- ----------------
                    C
    Aunque me haga daño 
                 Dm
    Aunque sea extraño 
    G
    Aunque cuando no te tengo 
                      C
    todo empieza a temblar 
    
                    Am
    Aunque me hayas capturado 
                Dm
    Dejé la vergüenza a un lado 
    
  • Intro: LAm - FA (x2)
    
    
    DO
    Aunque me haga daño 
               REm
    Aunque sea extraño 
    SOL
    Aunque cuando no te tengo 
                     DO
    todo empieza a temblar 
    
    LAm
    Aunque me hayas capturado 
                       REm
    Dejé la vergüenza a un lado 
    SOL
    Solía importarme pero ahora mis venas arden
    DO              DO7
    Necesito un poco más
    
  • E |-----------7-------|-------------------|
    B |-------------10----|-------------8-----|
    G |-10-9-8-10------9--|--9--8--7--9----9--|
    D |-------------------|------------------9|
    A |-------------------|-------------------|
    E |-------------------|-------------------|
    
    E |------------7--7/8/7 ---|-----------------------|
    B |----------------------9-|-------------8---------|
    G |-10-9-8-9---------------|--9--8--7--9----9------|
    D |------------------------|------------------9---7|
    A |------------------------|-----------------------|
    E |------------------------|-----------------------|
    DO
    Aunque me haga daño 
    E |-------------------- ---|
    B |--5--4-5--4-5--4-5------|
    G |------------------------|
    D |--5--4-5--4-5--4-5------|
    A |------------------------|
    
  •   Intro:
    
       ----------7---5------------3-------
       --6-5-4-5---5------5-5-4-5---6-----
       -------------------------------4---
       -----------------------------------
       -----------------------------------
       -----------------------------------
    
    
       ---------7-8------------3-----------------
       -6-5-4-5-----9----5-5-4---6---------------
       ----------------------------4-------------
       ------------------------------------------
       ------------------------------------------
       ------------------------------------------
    
      Solo:
    
       --------------------------------------------------
       --------------------------------------------------
       ----5---------7-7-5--------5-8-7--5---5---8-7-----
       -7----7--5-7----------5-7----------7---7----------
       --------------------------------------------------
       --------------------------------------------------
    
    
       --------------------------------------------------
       --------------------------------------------------
       ----5--------8-7-5-8-8-7-5-----
  • Ps aki sta canción que por cierto es buenísima.
    disfrutenla y Suerte
    
    Intro
    
    G-5--1--5-5531---1--1135--1--5-5531---1----
    D--------------3--------------------3------
    A------------------------------------------
    E------------------------------------------
    
    Verso 1
    
    G---3---3----5---5-5543---3-345-----53-----
    D-3---3---35---5--------3-------353----53--
    A------------------------------------------
    E------------------------------------------
    
    Verso 2
    
    G---5---5----5---5-5543---3-345-----53-----
    D-5---5---35---5--------3-------353----53--
    A------------------------------------------
    E------------------------------------------
    
    coro
    
    G-1-11---3-33----5-55-3-------------5-3-33-4-55-5/17---------5-
    D------3-----3/12-------3-33-4-5-55------------------12/10/8---  x2
    A--------------------------------------------------------------
    E--------------------------------------------------------------
    
    Interludio
    
    G-5--1--5-5531-5--1-1135-1--5-5531-5--1----
    D------------------------------------------
    A----
  • +
    ¡Colabora con nosotros!
    Envíanos tu versión de esta canción

Enganchado a tí Lyrics
Aunque me haga daño
Aunque sea extraño
Aunque cuando no te tengo
todo empieza a temblar
Aunque me hayas capturado
Dejé la vergüenza a un lado
Solía importarme pero ahora mis venas arden
Necesito un poco más
Enganchado a ti
no lo voy a negar
si te digo: 'me he quitado' no es verdad
las evidencias no se pueden ocultar
Enganchado a ti
se me nota al andar
por la noche o por el día siempre igual
lo reconozco no sé disimular
Aunque me confundes
Aunque me transformes
Aunque sea un Míster Hyde encantador
no seré la excepción
No sé cuál es la medida
hasta que todo termina
nunca supe decir basta no creí que hiciera falta
y necesito un poco más

Enganchado a ti
no lo voy a negar
si te digo: 'me he quitado' no es verdad
las evidencias no se pueden ocultar
Enganchado a ti
se me nota al andar
por la noche o por el día siempre igual
lo reconozco no sé disimular
Entra la bateria y termina: Lam - Fa (repite x8)




[Enganchado a tí acordes][Enganchado a tí cifra]
© LaCuerda.net · legal notice · privacy · es · en · pt · contact us
DINAMICO