Guitar Chords » D »Danna Paola » Te quiero tanto (Tab)

Te quiero tanto
Danna Paola

Lyrics, Chords & Tabs for Guitar, Bass & Ukulele

  • =D
    
    INTRO
    1)-----10-10-10-8-7----|------8-8-8-7------|------10-10-10-8-7---->
    2)-8~8~-------------10-|-8~8~---------10-8-|-7~7~--------------10->
    3)---------------------|-------------------|---------------------->
    4)---------------------|-------------------|---------------------->
    5)---------------------|-------------------|---------------------->
    6)---------------------|-------------------|---------------------->
    
                    ARMONICOS
    1)---7/---7/---------(12)-|
    2)-8----7----5~------(12)-|
    3)--------------(7)--(12)-|
    4)------------------------|
    5)------------------------|
    6)------------------------|
    
    
    1)-----------|               |---------|              |-----0---|
    
  • +
    ¡Colabora con nosotros!
    Envíanos tu versión de esta canción

Te quiero tanto Lyrics
ARMONICOS
Te quiero tanto que puedo hacer que tu alma quieeera
robar dentro de mis sueños y escapar hasta tu boca
te quiero tanto que olvido que el fuego nunca se toca
te quiero tanto que el viento sigue cantando tu nombre
despues de cantarlo yooo Ihe Ihe
te quiero tanto que muero si no vivo en tu sonrisa
si no puedo estar contigo me persige la tisteza
te quiero tanto que mi alma se escapa hasta tu ventana
Ihe Ihe uho uho Ihe Ihe
te quiero por que al quererte me llena todo tu amor
te quiero tanto que puedo llevarte a volar conmigo
girar con los remolinos que llevan el corazon
te quiero como la lluvia que moja todo tu cuerpo ihe ihe ihe
te quiero pa´que me quieras
te quiero con toda el alma
asi es como te quiero yo
te quiero tanto que muero si no vivo en tu sonrisa
si no puedo estar contigo me persige la tisteza
te quiero tanto que mi alma se escapa hasta tu ventana
ihe ihe uho uho ihe ihe
te quiero por que al quererte me llena todo tu amor
te quiero tanto que puedo llevarte a volar conmigo
girar con los remolinos que llevan el corazon
te quiero como la lluvia que moja todo tu cuerpo ihe ihe ihe
te quiero pa´que me quieras
te quiero con toda el alma
asi es como te quiero yo
te quiero pa´que me quieras
te quiero con toda el alma
asi es como te quiero yooo
oh no no no oh no
asi es como te quiero yo
asi es como te quiero yooo
asi es como te quiero yooo ihe nanana ihee
asi es como te quiero yooo ihe nanana ihee
te quiero pa´ que me quieras
te quiero con toda el alma.
ACORDES
(PONGO LA POSICION DE LOS ACORDES
POR SI TIENEN DUDAS DE COMO SON JEJE)
tal vez algunos acordes no sean los correctos
asi que si alguien gusta corregir los que estén mal
no dude en hacerlo ok??
cualkier queja, critica, duda, felicitacion o comentario
enviar a mi correo por fa! saludos
PD: califiquen de manera justa =)
by SoNaC32




[Te quiero tanto acordes][Te quiero tanto cifra]
© LaCuerda.net · legal notice · privacy · es · en · pt · contact us
DINAMICO