Guitar Chords » D »Danilo Montero » Te Alabaré mi buen Jesús (Tab)

Te Alabaré mi buen Jesús
Danilo Montero

Lyrics, Chords & Tabs for Guitar, Bass & Ukulele

  • //E Bsus4 C#m7 Asus2 E Bsus4 Asus2//
    
    E            Bsus4
    Eres tú la única razón
            C#m7         Asus2
    De mi adoración oh Jesús
    E               Bsus4
    Eres  tú la esperanza que
        C#m7          Asus2
    Anhele tener oh Jesús
    
    F#m7                  Bsus4
    Confié en ti me has ayudado
    F#m7                   Asus2 Bsus4
    Tu salvación me has regala---do
    E                   Bsus4
    Hoy hay gozo en mi corazón
            Asus2        B
    Con mi canto te alabare
    
    
  • Intro: E-B-C#m7-A, E-B-A(add2)-B
           E-B-C#m7-A, E-B-A, B.
    
    E             B               C#m7             A
    Eres Tú la única razón de mi adoración, !oh Jesús!
    E               B            C#m7             A
    eres Tú la esperanza que anhele tener, !oh Jesús!
    F#m7                       E/B - B
        confié en tí me has ayuda -  do
    F#m7                        B9sus4 - B
        tu salvación me has regala   -   do
    E                  Bsus4
    hoy hay gozo en mi corazón
            A            B
    con mi canto te alabaré
    
    F#      C#  D#m7        B
    Te alabaré, te glorificaré
    F#      C#            B    C#
    te alabaré mi buen Jesús,
    
  • E -----------
    B -8-8-------
    G -----5-7---
    D -----------
    
    
    
    esta parte lo hace un teclado (creo)
    
    E ----------------------
    B -------5---8-8--------
    G ---5h7-----------5-7--
    
    E ----------------------
    B --8-8--------6-5-6-8--
    G -------4-5------------
    
    
    E            B               C#m          A
    Eres tu la unica razon de mi adoracion oh Jesus
    
  • E ---7-7-----
    B ------3-5--
    G -----------
    D -----------
    A -----------
    E -----------
    
    esta parte lo hace un teclado (creo)
    
    E -7-5-4-----7-7-5-4---7s9-7-
    B -------5-7---------5-------
    G ---------------------------
    D ---------------------------
    A ---------------------------
    E ---------------------------
     
    E            B               C#m          A    
    Eres tu la unica razon de mi adoracion oh Jesus
    E           B            C#m           A    
    eres tu la esperanza que anhele tener oh Jesus
    
  • Intro: E B C#m A x2
    
    E*|-----4--7-7-----7-7-----|-----------5-4--------|
    B*|-5-7--------5-7-----4-5-|-4-5-7-5-4-----7-5-7--|
    G*|------------------------|----------------------|
    D*|------------------------|----------------------|
    A*|------------------------|----------------------|
    E*|------------------------|----------------------|
            E       B       C#m   A
    
    E*|-----4--7-7-----7-7-----|-5-4---------|
    B*|-5-7--------5-7-----4-5-|------7-5-7--|
    G*|------------------------|-------------|
    D*|------------------------|-------------|
    A*|------------------------|-------------|
    E*|------------------------|-------------|
            E       B       C#m    A
    
    I verso_ E B C#m A x 2  (marca el tono rasgeo abajo una vez p/tono)
             F#m B  A  B_ E B A B--/C# (marca 3/4 s/mutear)
    
  • (*SLIDE)
    
    intro:
    G:-----------------------------------------------------|
    D:-------------2---------------------------------2---2-|
    A:-----------2---2---2---2---2-4---4---4---0---0---0---|
    E:-*1/12/1-0-------0---2---2-----4---4-----------------|
    
    G:-----------------------------------------------------|
    D:-----2-----------------------------------------------|
    A:---2---2---2---2-2---0-0---0-0---0-0---0-2-----------|
    E:-0-------0---2-----2-----0-----0-----0---------------|
    
    
    verso:
    eres tu la unica...
    G:-----------------------------------------------------|
    D:-----2-----------------------------------------------|
    A:---2---2---2---2-2---4---4-4----4---4----------------|
    E:-0-------0---2-----2---4-----4-0--0---0--------------|
    
    
    eres tu la esperanza...
    G:-----------------------------------------------------|
    D:-----2-----------------------------------------------|
    A:---2---2---2---2-2---4---4-4----4---4----------------|
    E:-0-------0---2-----2---4-----4-0--0---0-----
  • +
    ¡Colabora con nosotros!
    Envíanos tu versión de esta canción

Te Alabaré mi buen Jesús Lyrics
Eres Tú la única razón de mi adoración, !oh Jesús!
eres Tú la esperanza que anhele tener, !oh Jesús!
confié en tí me has ayuda - do
tu salvación me has regala - do
hoy hay gozo en mi corazón
con mi canto te alabaré
Te alabaré, te glorificaré
te alabaré mi buen Jesús,
Te alabaré, te glorificaré
te alabaré mi buen Jesús. (vuelve a empezar)
En todo tiempo te alabaré
En todo tiempo te adoraré.
//Te alabaré, te glorificaré
te alabaré mi buen Jesús.//
Te alabaré, te glorificaré
te alabaré mi buen Jesús.
en "E" porque ahí no toca la guitarra.
El “B” que está entre el paréntesis significa que se toca
unos pequeños toque con ese acorde en la guitarra eléctrica
en esa parte, oigan la alabanza y se drán cuenta.
Si no se saben algún acorde pues me envian la duda a mi correo:
"franiciscoevora@gmail.com".
"franiciscoevora@hotmail.com". espero que les sea de bendición.




[Te Alabaré mi buen Jesús acordes][Te Alabaré mi buen Jesús cifra]
© LaCuerda.net · legal notice · privacy · es · en · pt · contact us
DINAMICO