Guitar Chords » D »Danilo Montero » Dulce Amor (Tab)

Dulce Amor
Danilo Montero

Lyrics, Chords & Tabs for Guitar, Bass & Ukulele

  • Intro: Bb  F/A  Fm/Ab  Eb  Ebm/F# Bb F
    
    Bb          F/A Fm/Ab           Eb
     Tu dulce amor bálsamo es a mi vida
    
    Ebm       Bb   Cm7             F
     Se derramó para darme salvación
    
    Bb         F/A    Fm/Ab            Eb
     Tu hijo fue el precio por mis pecados
    
    Ebm        Bb     Cm7                F
     Su sangre es el sello de mi redención
    
    CORO:
       Eb        F          Bb   F/A  Gm
     Y no tengo más que mi vida para dar
    
        Eb         Bb
    Mi voluntad y lo que soy
    
  • A#         Dm A#7             D#  
    Tu dulce amor bálsamo es a mi vida
    D#m     D# A#               E#
    se derramó para darme salvación
    A#       Dm    A#7              D#
    Tu hijo fue el precio por mis pecados
    D#m       D#    A#              E#
    su sangre es el sello de mi redención
    
    CORO
    D#          E#        A#   D#    Dm
    Y no tengo mas que mi vida para dar
    D#                    A#
    mi voluntad y lo que soy
    D#                 E#
    ofrenda son en tu altar
      D#       E#      A#       D#   Dm
    y mi decisión es vivir solo para tí
       D#          A#   
    y responder a este amor 
    
  •     Bb                   Bbmaj9
    E|---------------------|----------------------|
    B|---------3-----------|----------------------|
    G|--3-------------3----|--2--------L-------0--|
    D|---------------------|---------------3------|
    A|---------------------|----------------------|
    
      Bb7                Eb(add2)   Ebm7                  Eb(add9)/F
    e------------------|----------|--------------------|---------|
    B------------------|----------|--------------------|---------|
    G--1----L---3---1--|--0-------|---------3----------|---------|
    D------------------|----------|--4-------------4---|--3------|
    A------------------|----------|--------------------|---------|
    
    
    Bb       Bbmaj7   Bb7             Eb
    Tu dulce amor,    bálsamo es a mi vida
    Ebm7    Bb    Cm7           F
    Se derramó, para darme salvación
    Bb      Bbmaj7    Bb7              Eb
    
  •       Este tap es una de mis mejores que he sacado, espero les sirva
    y antes de empezar a tocarla, les sugiero que la oigan primero para que 
    puedan acomodar las figuras en su respectivo tiempo.  Bueno aquí les va...
    
    
    
    ::Intro::
    
    E |---6-6------------6-6-------------6-6-----------------------------------------------
    A |--------------------------------------------------------6-6-6-6-----6-6-6-6------8--
    D |---------7h8-8-----------7h8-8----------7h8-8---------------------------------------
    G |------------------------------------------------------------------------------------
    B |------------------------------------------------------------------------------------
    
    
    ::Verso 1y 2::
    
    E |---6-6------------6-6-------------6-6-----------------------------------------6-6------------8-8-----------1-1-1-1--
    A |----------------------------------------------------6-6-6-6-----6-6-6-6---------------------------------------------
    D |---------7h8-8----------7h8-8----------7h8-8----
  • +
    ¡Colabora con nosotros!
    Envíanos tu versión de esta canción

Dulce Amor Lyrics
Tu dulce amor bálsamo es a mi vida
se derramó para darme salvación
Tu hijo fue el precio por mis pecados
su sangre es el sello de mi redención
Y no tengo mas que mi vida para dar
mi voluntad y lo que soy
ofrenda son en tu altar
y mi decisión es vivir solo para tí
y responder a este amor
que conquistó mi corazón




[Dulce Amor acordes][Dulce Amor cifra]
© LaCuerda.net · legal notice · privacy · es · en · pt · contact us
DINAMICO