Guitar Chords » D »Danilo Montero » Dios me ama (Tab)

Dios me ama
Danilo Montero

Lyrics, Chords & Tabs for Guitar, Bass & Ukulele

  • LA
    Aun siendo así Pobre pecador
    RE
    Dios me ama
    LA
    Siendo imperfecto, aún sin merecerlo
    RE
    Dios me ama
    LA
    Si estoy fuerte, si yo estoy de pie
    RE
    Dios me ama
    LA
    Si estoy débil, si yo estoy caído
    RE
    Él no me dejará de amar
    LA
    Sin su amor, Sin su perdón
    RE
    No sé qué sería de mí
    
  • Intro: A E/A A6 E/A A/D Esus4/D A/D-Dsus2-A/D Esus4/D
    
    
    A           E/A  A6       E/A         A/D Esus4/D A/D Esus4/D
    Aun siendo así, Pobre pecador, Dios me ama
     A          E/A    A6          E/A             A/D Esus4/D A/D Esus4/D
    Siendo imperfecto, aun sin merecerlo, Dios me ama
    
    
    Puente:
    
    A                 E/A      A6            E/A         A/D Esus4/D A/D Esus4/D
       Si  yo estoy fuerte, si yo estoy de pie, Dios me ama
    A          E/A      A6         E/A           A/D Esus4/D    A/D Esus4/D
    Si  estoy débil, si yo estoy caído, él no me dejara     de amar
    
    
    
    A/C#        F#m7                        Dsus2-A/D     Dsus2-A/D
    Sin su amor, sin su perdón, no sé qué sería       de mí
    
  • A - G
    
    A
    AÚN SIENDO ASÍ, POBRE PECADOR
            D
    DIOS ME AMA
    A
    SIENDO IMPERFECTO AÚN SIN MERECERLO
            D
    DIOS ME AMA
    A
    SI ESTOY FUERTE, SI YO ESTOY DE PIE
             D
    DIOS ME AMA
    A
    SI ESTOY DÉBIL, SI YO ESTOY CAÍDO
             D
    ÉL NO ME DEJARÁ DE AMAR
    
    
    
  • ------------------------------------------
    
    INTRO: / / Aadd9 | G6 / / Aadd9 - D5
    
    VERSO 1
    Aadd9
    Aun siendo así, pobre y pecador,
            D5
    Dios me ama.
    Aadd9
    Siendo imperfecto, aun sin merecerlo,
           D5
    Dios me ama.
    
    VERSO 2
    Aadd9
        Si yo estoy fuerte, si estoy de pie,
            D5
    Dios me ama.
    Aadd9
    
  • E|-15~---15/17-13-15-12-13/15-13-12-------13-12/13---------------------|
    B|----13---------------------------13-------------13-13/15-----13--15--|
    G|-----------------------------------14-14----------------12-12--12----|
    D|---------------------------------------------------------------------|
    A|---------------------------------------------------------------------|
    E|---------------------------------------------------------------------|
    
    E|-15~---15/17-17/19-15-12/13--12/13--12/13------------------------|
    B|----13---------------------13----13-----13-----------------------|
    G|-----------------------------14----14----14--12/14--12----------|
    D|--------------------------------------------------14-14-12-14-12-10/12--10~-|
    A|---------------------------------------------------------------------|
    E|---------------------------------------------------------------------|
    
    
    Esto es toda la tab
  • +
    ¡Colabora con nosotros!
    Envíanos tu versión de esta canción
  • Tutorial
    Tutorial de Guitarra - Dios me Ama - Más Como Jesús
    16:54

Dios me ama Lyrics
AÚN SIENDO ASÍ, POBRE PECADOR
DIOS ME AMA
SIENDO IMPERFECTO AÚN SIN MERECERLO
DIOS ME AMA
SI ESTOY FUERTE, SI YO ESTOY DE PIE
DIOS ME AMA
SI ESTOY DÉBIL, SI YO ESTOY CAÍDO
ÉL NO ME DEJARÁ DE AMAR
SIN SU AMOR, SIN SU PERDÓN
NO SÉ QUE SERÍA DE MI
DIOS ME AMÓ TANTO QUE ENTREGÓ A SU HIJO
PARA MORIR EN MI LUGAR
DIOS ME AMA, Y SU AMOR ES TAN GRANDE
INCONDICIONAL
DIOS ME AMA, Y SIEMPRE ESTÁ CON SU BRAZOS
ABIERTOS A MÍ
DIOS ME AMA, Y SU AMOR ES TAN GRANDE
INCONDICIONAL
DIOS ME AMA, Y SIEMPRE ESTÁ CON SU BRAZOS
ABIERTOS A MÍ




[Dios me ama acordes][Dios me ama cifra]
© LaCuerda.net · legal notice · privacy · es · en · pt · contact us
DINAMICO