Guitar Chords » D »Danilo Montero » Cuanto amo tu ley (Tab)

Cuanto amo tu ley
Danilo Montero

Lyrics, Chords & Tabs for Guitar, Bass & Ukulele

  •  Dm7           G7
    Cuanto amo tu ley
    Dm7            G7
    mi gozo es tu palabra
    Dm7                G7
    lampara es a mis pies
      A#maj7            Am7
    y lumbrera a mi camminar
    
    Dm7           G7
    guardame en tu ley
    Dm7           G7
    sustentame en tu palabra
    Dm7           G7
    y siempre te alabare
       A#maj7            Am7
    con rectitud de corazon
    
    =CORO=
    Dm7        A#         A
    
  •        ||: Em   - D  | G  - B       | Em   - D | G  - B :||
          2 (EDBAGE DE | GBGA) ||
           || Em    - D | G B ||
    
    
      Em               A7
    V1) Cuánto amo tu ley,
        Mi gozo es tu Palabra,
        Lámpara es a mis pies
              CM7            Bm7
        Y lumbrera a mi caminar.
    
      Em                A7
    V2) Guárdame en tu ley,
        Susténtame en tu Palabra
        Y siempre te alabaré
                 CM7        Bm7
        Con rectitud de corazón.
    
    
    
  • E: ------------------|----------------|                |------------------|
    B: ------------------|----------------|Se repite 4     |------------------|
    G: --9-8-7-----------|------------7---|                |------------------|
    D: --------9-8-7-----|------5-7-8---9-|veces y al final|------5-7h9----7--|
    A: --------------9-8-|--5-7-----------|                |--5-7-------10----|
    E: ------------------|----------------|esta ultima..   |------------------|
    
    
    ESTO HACE LA GUITARRA CUANDO EMPIEZA LA CANCIÓN...........
    
    
    e: --19^-19^-19^-19^-19^-19^---19h17h15------------------15---|
    B: -------------------------------------17-----15-17^-17------|
    G: -----------------------------------------------------------|
    D: -----------------------------------------------------------|
    A: -----------------------------------------------------------|
    E: -----------------------------------------------------------|
    
    e: ----------------------------------------------------------------|
    B: --15^-15-12----12-----------------------------------------------|
    
  • +
    ¡Colabora con nosotros!
    Envíanos tu versión de esta canción

Cuanto amo tu ley Lyrics
Cuanto amo tu ley
mi gozo es tu palabra
lampara es a mis pies
y lumbrera a mi camminar
guardame en tu ley
sustentame en tu palabra
y siempre te alabare
con rectitud de corazon
Cristo, tu palabra me alienta
Cristo, tu verdad me sustenta
Cristo, guiame en tu ley
y perfecto mi cammino sera




[Cuanto amo tu ley acordes][Cuanto amo tu ley cifra]
© LaCuerda.net · legal notice · privacy · es · en · pt · contact us
DINAMICO