Guitar Chords » D »Los Daniels » Te puedes matar (Tab)

Te puedes matar
Los Daniels

Lyrics, Chords & Tabs for Guitar, Bass & Ukulele

  •  Gm                D#           A#            D
    Caminas entre la gente, empujándola llegas a mí,
     Gm                  D#                   A#                D
    me dices que no me aleje y cuando estaba ahí me hiciste infeliz
               Gm    D#    A#     D
    te puedes matar Uuooh uooh ..
                  Gm     D#     A#   D  D#
    total que más da... uuooh uuohh
    
    
                               A#
    Pero es que nunca voy a olvidar
                      D#       A#   D  D#
    cuando te hice llorar de dolor
                                 A#
    pero es que nunca te voy a sentir
                 D#              D
    si eres para mí, solo diversión
    
    
    
  • Intro:G#m,E,B,D#....x2
    
    
    G#m                E           B           D#
    Caminas entre la gente, empujándola llegas a mí,
     G#m                E           B           D#
    me dices que no me aleje y cuando estaba ahí me hiciste infeliz
              G#m    E     B     D#
    te puedes matar Uuooh uooh!!!!
                  G#m        E     B     D#
    total que más da!!!!! uuooh uuohh!!!!
    
    
    C#m                          B
    Pero es que nunca voy a olvidar
                     E       B    D#
    cuando te hice llorar de dolor
      C#m                          B
    pero es que nunca te voy a sentir
                 E             D#
    
  •   G#m5   E5    B5   F#5   D#5   C#m5   G5
    e----- ----- ----- ----- ----- ----- -----
    B----- ----- ----- ----- ----- ----- -----
    G----- --9-- ----- ----- --8-- --6-- -----
    D--6-- --9-- --9-- --4-- --8-- --6-- --5--
    A--6-- --7-- --9-- --4-- --6-- --4-- --5--
    E--4-- ----- --7-- --2-- ----- ----- --3--
    
    INTRO G#m E B F#
    
    e-------------------------------|-------------------------------|
    B-----4-4h5h4-------------------|-----4-4h5h4----------------4*-|
    G---4---------4h6h4-3h4-6-4-3---|---4---------4h6h4-3h4-6-4-----|
    D-6-----------------------------|-6-----------------------------|
    A-----------------------------6-|-------------------------------|
    E-------------------------------|-------------------------------|
    * KI EN LA PARTE DONDE LLEVA EL ASTERISCO SE TOCA RAPIDO ASIENDO
    LA PLUMILLA DE ARRIBA ASIA ABAJO
    
    G#m                 E            B
    
  • INTRO
    
    G----------------------------------
    D----------------------------------
    A----181818h17-181818h17-----------
    E----------------------------------
    
    G----------------------------------
    D----------------------------------
    A----------7777-------6666---------        esta parte dos veces
    E----4444--------7777--------------
    
    verso
    
    G----------------------------------
    D----------------------------------
    A----------7777-------6666---------        se toca cuatro veces
    E----4444--------7777--------------
    
    
    "pero es que nunca voy a olvidar..."
    G-------------------------------------------
    D-------------------------------------------
    A--44444444--22222222--77777777-------6666--
    E--------------------------------7777-------
    
    G-----------------------------------------------
    D-----------------------------------------------
    A--44444444--22222222--77777777--6-6--6-6-6-6-6-
    E-----------------------------------------------
    
    puente 1
    
    G----------------------------
    D----------------------------
    A--------
  • +
    ¡Colabora con nosotros!
    Envíanos tu versión de esta canción
  • Tutorial
    HD
    Como tocar TE PUEDES MATAR en guitarra
    Los Daniels ⭐️ TUTORIAL FÁCIL
    7:47
  • Tutorial
    HD
    Como tocar TE PUEDES MATAR en guitarra - Los Daniels [Tutorial Somos Posers]
    8:18

Te puedes matar Lyrics
Caminas entre la gente, empujándola llegas a mí,
me dices que no me aleje y cuando estaba ahí me hiciste infeliz
te puedes matar Uuooh uooh ..
total que más da... uuooh uuohh
Pero es que nunca voy a olvidar
cuando te hice llorar de dolor
pero es que nunca te voy a sentir
si eres para mí, solo diversión
Te muestras indiferente que casualidad ah ah ah …
te drogas haber si me afecta lo siento solo te afecta a ti
te puedes matar Uuooh uuooh
total que más da... uuooh uuohh
Pero es que nunca voy a olvidar
cuando te hice llorar de dolor
pero es que nunca te voy a sentir
si eres para mí, solo diversión
Pero es que nunca voy a olvidar
cuando te hice llorar de dolor
pero es que nunca te voy a sentir
si eres para mí, solo diversión




[Te puedes matar acordes][Te puedes matar cifra]
© LaCuerda.net · legal notice · privacy · es · en · pt · contact us
DINAMICO