Guitar Chords » C »Caramelos de Cianuro » Veneno (Tab)

Veneno
Caramelos de Cianuro

Lyrics, Chords & Tabs for Guitar, Bass & Ukulele

  • e|-3--------3----|
    b|-------0-----0-|
    g|----0----------|
    D|---------------|    x4
    A|---------------|
    E|-3-------------|
    
    
    Estrofa 1:
    
         No se...                         si estas llorando por que me ...
      voy...                              o porque     sabes que volvere...
       G               G               F#/G7           Em
    e|-3--------3----|-3--------3----|-2--------2----|-0--------0----|
    b|-------0-----0-|-------0-----0-|-------0-----0-|-------0----0--|
    g|----0----------|----0----------|----0----------|----0--------0-|
    D|---------------|---------------|---------------|---------------|
    A|---------------|---------------|---------------|---------------|
    E|-3-------------|-3-------------|-2-------------|-0-------------|
    
    
  • +
    ¡Colabora con nosotros!
    Envíanos tu versión de esta canción

Veneno Lyrics
Estrofa 1:
No se... si estas llorando por que me ...
voy... o porque sabes que volvere...
re... Solo soy capaz de dar...
dolor... no se...
Estrofa II
se... que haria con otra oportinidad...
dad... si mil maneras para traicionar...
nar... todas ellas llevan a per...
..derte una vez mas
Adonde van todas esas promesas
que alguna vez hice y no puede cumplir
esperan en el fondo de tu alma... ten calma
Muetrame marcas de las tristezas
las cicatrices que te di
nunca fue mi intencion sumergirte
en mi espeso veneno
Estrofa III
No se... si aun tengo tiempo para cambiar
biar... si aun queda algo por salvar
var... no se a perdido nada si aun nos...
queda algo mas
..nunca fue mi intencion herirte una vez mas
Riff: Distortion
Outro: x 5
Crei merecer mas de una
no fui suficiente para dos
**************************************************************************
Explicacion de los Acordes:
*****************************************
Como mucho cariño para todos los de la UNEG
que nos gusta Caramelos de cianuro




[Veneno acordes][Veneno cifra]
© LaCuerda.net · legal notice · privacy · es · en · pt · contact us
DINAMICO