Bass Tab of Camila: Todo Cambió
Camila  corregir
desconocido
  TODO TEMBLÓ DENTRO DE MI...

  1   2   3   |

G|------------|------------|------------|------------|
D|------------|------------|3-----------|(3)-----3---|
A|------------|--------3---|------------|----3-------|
E|1-----------|(1)---------|------------|------------|

  1   2   3   |

G|------------|------------|------------|------------|
D|------------|------------|------------|----3-------|
A|1-----------|(1)---------|1-----------|(1)---------|
E|------------|--------1---|------------|--------1---|

  1   2   3   |

G|------------|------------|------------|------------|
D|------------|------------|3-----------|----3-------|
A|------------|--------3---|------------|--------3---|
E|1-----------|(1)---------|------------|1-----------|

  1   2   3   |

G|------------|------------|------------|------------|
D|------------|------------|------------|------------|
A|1-----------|(1)---------|1-----------|(1)-----0---|
E|------------|--------1---|------------|------------|

  1   2   3   |

G|------------|------------|------------|------------|
D|------------|------------|------------|------------|
A|------------|------------|0-----------|0-------0---|
E|3-----------|3-------3---|------------|------------|


  1   2   3   |

G|------------|------------|------------|------------|
D|------------|----3-------|------------|3-------2---|
A|1-----------|(1)-----1---|0-----------|------------|
E|------------|------------|------------|------------|

  1   2   3   |

G|------------|------------|------------|------------|
D|------------|0-----------|------------|2-----------|
A|------------|------------|0-----------|--------0---|
E|3-----------|--------3---|------------|------------|

  1   2   3   |                         |1  2  3  4  |

G|------------|------------|------------|------------|
D|------------|------------|------------|------------|
A|1---1-------|1---1-------|3---3---3---|3-__________|
E|------------|------------|------------|------------|


  ANTES QUE PASE MAS...

  1   2   3   |

G|------------|------------|------------|------------|
D|------------|------------|------------|------------|
A|1-----------|(1)-----1---|1-----------|(1)-----1---|
E|------------|------------|------------|------------|

  1   2   3   |

G|------------|------------|------------|------------|
D|------------|------------|3-----------|----3-------|
A|------------|--------3---|------------|3-------3---|
E|1-----------|(1)---------|------------|------------|

  1   2   3   |

G|------------|------------|------------|----3-------|
D|------------|------------|3-----------|3-------3---|
A|------------|--------3---|------------|------------|
E|1-----------|(1)---------|------------|------------|

  1   2   3   |

G|------------|------------|------------|------------|
D|------------|------------|------------|------------|
A|------------|--------0---|1-----------|0-----------|
E|----1-------|1---3-------|------------|------------|

  1   2   3   |

G|------------|------------|------------|------------|
D|------------|------------|------------|------------|
A|------------|------------|0-----------|(0)-----0---|
E|3-----------|(3)-----3---|------------|------------|

  1   2   3   |

G|------------|------------|------------|------------|
D|------------|------------|------------|------------|
A|1---1---1---|1---1---1---|3-----------|(3)---------|
E|------------|------------|------------|------------|

  1   2   3   |

G|------------|------------|------------|------------|
D|------------|------------|------------|------------|
A|1-----------|(1)---------|(1)---------|(1)---------|
E|------------|------------|------------|------------|

  ME SORPRENDIÓ

  1   2   3   |

G|------------|------------|------------|------------|
D|------------|------------|3-----------|(3)-----3---|
A|------------|--------3---|------------|----3-------|
E|1-----------|(1)---------|------------|------------|

  1   2   3   |

G|------------|------------|------------|------------|
D|------------|------------|------------|----3-------|
A|1-----------|(1)---------|1-----------|(1)-----1---|
E|------------|--------1---|------------|------------|

  1   2   3   |

G|------------|------------|------------|
D|------------|------------|------------|
A|--------3---|------------|__silencio__|
E|(1)---------|1-----------|------------|

  1   2   3   |

G|------------|------------|------------|------------|
D|------------|------------|------------|------------|
A|1-----------|------------|1-----------|(1)-----0---|
E|------------|--------1---|------------|------------|

  1   2   3   |

G|------------|------------|------------|------------|
D|------------|------------|------------|------------|
A|------------|------------|0-----------|0-------0---|
E|3-----------|3-------3---|------------|------------|

  1   2   3   |

G|------------|------------|------------|------------|
D|------------|------------|------------|------------|
A|1-----------|(1)---------|0-----------|(0)---------|
E|------------|------------|------------|------------|


  1   2   3   |

G|------------|------------|------------|------------|
D|------------|0-----------|------------|2-----------|
A|__silencio__|------------|0-----------|--------0---|
E|------------|--------3---|------------|------------|

  1   2   3   |                         |1  2  3  4  |

G|------------|------------|------------|------------|
D|------------|------------|------------|------------|
A|1---1-------|1---1-------|3---3---3---|3-__________|
E|------------|------------|------------|------------|

  ANTES QUE PASE MAS...

  1   2   3   |

G|------------|------------|------------|------------|
D|------------|------------|------------|------------|
A|1-----------|(1)-----1---|1-----------|(1)-----1---|
E|------------|------------|------------|------------|

  1   2   3   |

G|------------|------------|------------|----3-------|
D|------------|------------|3-----------|3-------3---|
A|------------|--------3---|------------|------------|
E|1-----------|(1)---------|------------|------------|

  1   2   3   |

G|------------|------------|3-----------|----3-------|
D|------------|--------3---|------------|3-------3---|
A|1-----------|(1)---------|------------|------------|
E|------------|------------|------------|------------|

  1   2   3   |

G|------------|------------|------------|------------|
D|------------|------------|------------|------------|
A|------------|--------0---|1-----------|0-----------|
E|----1-------|1---3-------|------------|------------|

  1   2   3   |

G|------------|------------|------------|------------|
D|------------|------------|------------|------------|
A|------------|------------|0-----------|(0)-----0---|
E|3-----------|(3)-----3---|------------|------------|

  1   2   3   |

G|------------|------------|------------|------------|
D|------------|------------|------------|------------|
A|1---1---1---|1---1---1---|3-----------|(3)---------|
E|------------|------------|------------|------------|

  1   2   3   |

G|------------|------------|------------|------------|
D|------------|------------|------------|------------|
A|1-----------|(1)---------|(1)---------|(1)---------|
E|------------|------------|------------|------------|
This file is the work if its transcriptor and it represents his/her own interpretation of the song. This material is intended for PERSONAL USE ONLY. It is strictly forbiden to copy, reproduce or retransmit the contents of this website. Legal actions will be taken if required.
© LaCuerda.net · legal notice · privacy · es · en · pt · contact us