Guitar Chords » C »Café Tacuba » Cinco (Tab)

Cinco
Café Tacuba

Lyrics, Chords & Tabs for Guitar, Bass & Ukulele

  • vallamos al grano...
    
    
    INTRO
    
    
    e-----------------------------------------
    B---3-2-------3-2-------3-2-------3-2-----
    G-------4-2-------4-2-------4-2-------4-2-
    D-----------------------------------------
    A-2---------0---------2---------0---------
    E-----------------------------------------
    
    
    LA SIGUIENTE PARTE LLEVA EL INTRO DE FONDO
    
    
    e-------------------------------------------
    B-9-9-9-10-9-7-9--5-6-5-3-7-2--2-5-0-3-2----
    G-----------------------------------------1-
    D-------------------------------------------
    A-------------------------------------------
    E-------------------------------------------
    
    
    e-------------------------------------------
    B-9-9-9-10-9-7-9--5-6-5-3-7-2--2-5-0-3-2----
    G-----------------------------------------1-
    D-------------------------------------------
    A-------------------------------------------
    E-------------------------------------------
    
    
    e-------10-7-9-8--5-6-5-3-7-2--2-5-0-3-2----
    B-9-9-9----------------------------------
  •           Cm                  Gm                Cm              Gm
     E|------------------|------------------|------------------|------------------|
     B|------4--3--------|------4--3--------|------4--3--------|------4--3--------|
     G|------------5-----|------------5-----|------------5-----|-----------5------|
     D|--------------5---|---------------5--|--------------5---|-------------5----|
     A|--3---------------|------------------|--3---------------|------------------|
     E|------------------|--3---------------|------------------|--3---------------|
    
     Guitarra 2
    
     Empieza la melodía (1)
    
     E|-3--3--3-|-4--3----|-----------|-----------|----------|---------|---3----|
     B|---------|-------6-|-3--4--6-4-|-3--6---4--|----4-----|---3-----|--------|
     G|---------|---------|-----------|-----------|--3----4--|-------5-|---0----|
     D|---------|---------|-----------|-----------|----------|---------|--------|
     A|---------|---------|-----------|-----------|----------|---------|--------|
     E|---------|---------|-----------|-----------|----------|---------|--------|
    
     Luego hace lo siguiente: 2 veces y regresa a melodía (1)
    
  • +
    ¡Colabora con nosotros!
    Envíanos tu versión de esta canción






[Cinco acordes][Cinco cifra]
© LaCuerda.net · legal notice · privacy · es · en · pt · contact us
DINAMICO