Guitar Chords » B »los Bukis » Necesita de tí (Tab)

Necesita de tí
los Bukis

Lyrics, Chords & Tabs for Guitar, Bass & Ukulele

  •   D
    A ese hombre que te pide amor
                    Em  A
    no lo hagas llorar
       Em                        A 
    tu eres todo para el y ya jamas
                     D    A
    a ti podra renunciar.
        D
    Su pecho encierra tantas cosas
              Em         A
    que te quiere decir
      Em
    pero no hay tiempo ni momento
            A             D   D7
    en que tu lo quieras oir.
        G
    se muere esperando que le des
             D            E7
    una oportunidad, pues el dolor
    
  • Este es el solo:
    
    e)-----------------------------10---
    b)------------------------5/7-------
    g)---------5--7/9-9--7h9------------
    d)--4/5--7--------------------------
    a)----------------------------------
    E)----------------------------------
    
    
    e)-----------------------------8----
    b)--7--7--7--7h8p7--5---------------
    g)---------------------7--7/9-------
    d)----------------------------------
    a)----------------------------------
    E)----------------------------------
    
    
    e)----------------------------------
    b)--5--5--5--5/7--5-----------------
    g)-------------------7--5--7--------
    d)----------------------------------
    a)----------------------------------
    E)----------------------------------
    
    e)------------------------------------19--17--15-
    b)--12h13--12--15h17--15--15--17--20-------------
    g)-----------------------------------------------
    d)-----------------------------------------------
    a)-----------------------------------------------
    E)-----------------------------
  • +
    ¡Colabora con nosotros!
    Envíanos tu versión de esta canción

Necesita de tí Lyrics
A ese hombre que te pide amor
no lo hagas llorar
tu eres todo para el y ya jamas
a ti podra renunciar.
Su pecho encierra tantas cosas
que te quiere decir
pero no hay tiempo ni momento
en que tu lo quieras oir.
se muere esperando que le des
una oportunidad, pues el dolor
de no tenerte le enseño que eres
tu su verdad.
Cariño(cariño) y ternura
necesita de ti.
Tu eres( tu eres) su locura
ya no lo hagas sufrir.
Que triste(que triste) es su vida
y que amrago dolor, me causa( me causa)
el decirte.... que se hombre soy yo.




[Necesita de tí acordes][Necesita de tí cifra]
© LaCuerda.net · legal notice · privacy · es · en · pt · contact us
DINAMICO