Guitar Chords » B »Bersuit Vergarabat » Espiritu de esta selva (Tab)

Espiritu de esta selva
Bersuit Vergarabat

Lyrics, Chords & Tabs for Guitar, Bass & Ukulele

  • Bm                A
    Que los deseos salgan,
    F#m                             G
    estado de sitio del cuerpo y el alma,
    y los que callan griten
    con voces que asustan con brotes de rabia,
    que los que temen bailen,
    con risas de niño, con vodka y tambor,
    esquivando amenazas
    tremendos ladridos de los perros de Dios.
    Que los pesados vuelen
    con alas de cóndor, con sueños sin ley,
    y los castrados penetren,
    que lleguen acaben y no se lamenten,
    explorando esta nada,
    dolor en memoria trae rebelión
    Que los vencidos resistan,
    no hay droga mejor para despertar.
    Bm                 A
    Tengo un pedo salvador,
    
  • Bm                A
    Que los deseos salgan,
    F#m                             G
    estado de sitio del cuerpo y el alma,
    y los que callan griten
    con voces que asustan con brotes de rabia,
    Bm                  A
    que los que temen bailen,
    F#m                    F#
    con risas de niño, con vodka y tambor,
    Bm            A
    esquivando amenazas
    D                       G
    tremendos ladridos de los perros de Dios.
    (Bm A F#m G)x2
    O Nooo....
    
    Que los pesados vuelen
    con alas de cóndor, con sueños sin ley,
    y los castrados penetren,
    
  • Solo de guitarra:
    
    |-----------------------------------------------------------------10-10-
    |----------7~-----------------------------------------------7~--7-------
    |--6-7-6-------9-7-6-7-6----------7-7-7-7-7-6---9-7-6-7-6---------------
    |--------7---------------9-5~---5-------------------------7-------------
    |-----------------------------------------------------------------------
    |-----------------------------------------------------------------------
    
    |----9-9----7-7------2-2~------------------------5/7-10-10-9-7---9~-----
    |--5------3--------2-------5-3-5-3-5-3-5-3-5^-0----------------9--------
    |-----------------------------------------------------------------------
    |-----------------------------------------------------------------------
    |-----------------------------------------------------------------------
    |-----------------------------------------------------------------------
    
    |-------------------------------------
    |----8-8-7-----8----7-----------------
    |--7-------9-7-----------
  • solo de guitarra:
    
    |------------------------------------------------------------|-----(10-10)--(7-7)---(5-5)--(2-2)-
    |---------7~---5-3-2-3-2-0---0-3-3-3-3-3-3-2-3/5-3-2-3-2-0-7-|--7---------7-------5------2-------
    |-6-7-6-4------------------0---------------------------------|-----------------------------------
    |------------------------------------------------------------|-----------------------------------
    |------------------------------------------------------------|-----------------------------------
    |------------------------------------------------------------|-----------------------------------
    
    |------------------------------5/10-10-10-9-7-5-9---------|------------------------------------
    |---5p3-5p3-5p3-5p3-5^^-3---------------------------------|-2/8-8-8-7-5-3-5/8~-----------------
    |-------------------------4-------------------------------|------------------------------------
    |---------------------------------------------------------|---------------------------------
  • +
    ¡Colabora con nosotros!
    Envíanos tu versión de esta canción

Espiritu de esta selva Lyrics
Que los deseos salgan,
estado de sitio del cuerpo y el alma,
y los que callan griten
con voces que asustan con brotes de rabia,
que los que temen bailen,
con risas de niño, con vodka y tambor,
esquivando amenazas
tremendos ladridos de los perros de Dios.
Que los pesados vuelen
con alas de cóndor, con sueños sin ley,
y los castrados penetren,
que lleguen acaben y no se lamenten,
explorando esta nada,
dolor en memoria trae rebelión
Que los vencidos resistan,
no hay droga mejor para despertar.
Tengo un pedo salvador,
Nacido en latinoamerica,
don leopardo corazon,
Espiritu en esta selva.
Que los poetas maten
por única vez, disparen las letras,
que no sean las víctimas
que velan a un niño que no murió,
que los poetas mientan,
total para que sirve esta verdad,
se ve rara esta selva,
cuando el espíritu empieza a gobernarte.
Tengo un pedo salvador,
Nacido en latinoamerica,
don leopardo corazon,
Espiritu en esta selva.
Ohhhhhh!!! No te comas la voz, Ohhhhhh!!!
Tengo un pedo salvador,
Nacido en latinoamerica,
don leopardo corazon,
Espiritu en esta selva.




[Espiritu de esta selva acordes][Espiritu de esta selva cifra]
© LaCuerda.net · legal notice · privacy · es · en · pt · contact us
DINAMICO