Guitar Chords » B »Bersuit Vergarabat » El gordo motoneta (Tab)

El gordo motoneta
Bersuit Vergarabat

Lyrics, Chords & Tabs for Guitar, Bass & Ukulele

  • e|---6-6-6-6-6-6-6-6-6-6-6-6-6-6-6-6-6-6-6-6-6-6-6-6-6-6-6-6-6-6-6-6-6------
    B|---6-6-6-6-6-6-6-6-6-6-6-6-6-6-6-6-6-6-6-6-6-6-6-6-6-6-6-6-6-6-6-6-6----
    G|---7-7-7-7-5-5-5-5-3-3-3-3-3-3-3-3-3-7-7-7-7-5-5-5-5-3-3-3-3-3-3-3-3------
    D|--------------------------------------------------------------------------
    A|--------------------------------------------------------------------------
    E|---------------------------------------------------------------------------
    
    
    
    El rasguido es  abajo-arriba-abajo-arriba-abajo
    
    
    
    
    Esta es la historia de un hombre...
    
              C                         (slide)  D#     D#7  
    e|-----8-8---x-----8--8----8>--11-----11---11---------
    B|-----8-8---x-----8--8----8>--11-----14---11-----------
    G|-----9-9---x-----9--9----8>--12-----12---12------------
    
  • Este es el bajo de el gordo motoneta... es muy sencillo.... practicalo y
     tene en cuenta los Silencios entre medio de las notas.  Escucha el tema bien. 
     Suerte!!!
    
    
    Introducción:
    E|--------------------------------------------------------
    D|-------------------------------------------------------
    A|--1>13------13-13-13-13-13-13--13-13-13-13---
    E|-------------------------------------------------------
    
    E|------------------------------------------------------------------
    D|------------------------------------------------------------------
    A|--17-17-17-17-15-15-15-15--13-13-13-13--------------------
    E|------------------------------------------------------------------------
    
    
    
    
    E|--------------------------------------------
    D|-------------------------------------------     repite eso durante las estrofas
    A|--------7---------------------10--13-----
    E|----8-8---8----8>11----11---------------
    
    
    
    En la parte de “se siente contenta la gente cuando el esta ausente....
  • +
    ¡Colabora con nosotros!
    Envíanos tu versión de esta canción

El gordo motoneta Lyrics
El rasguido es abajo-arriba-abajo-arriba-abajo
Esta es la historia de un hombre...
Esta es la historia de un hombre de roble que nace indestructible
Conmovedora, rudomotora
De raza noble capaz de no caerse andando por el borde
Forzando cambiar al futuro aunque sea duro
No acusa dolor, que grande que sos
Incandescente, huevos de fuego para bancarse el presente
Todo derrite, Todo devora
(El Fa preferiblemente hacerlo
en el 5to traste con forma de Do)
Se siente contenta la gente cuando el esta ausente
No siente temor, no siente temor
es el gordo maravilla te pisa y te astilla
Que fuerte pison, que fuerte pisón.
Y no recae se acerca la recaída...
No recae, se acerca la recaida y otra vez va para arriba
Es de terror, conmovedor
Por eso digo que paren al imparable que te fulmina y si
te pisa te aplasta
No puede parar, no puede parar
(El estribillo se toca sobre la misma base del intro,
junto con el riff del bajo queda lindo)
El gordo motoneta no puede parar, no puede parar, no puede parar
El suido del silenico lo altera cualquier cosa lo
exaspera
No tiene paz, quiere mas gas
Procedente de los antiguos plexodontes cuando habla te come
El guacho, implacable el guacho
El tiende sus redes vigia y todo vigila
Adicto al control y al descontrol
Montado en su motoneta es una saeta
Que viaja hacia vos, que viaja hacia vos
En la cabeza es un gordo que ordena amotina y extermina
Corazones en la olla, y ada a cantarle a magolla
Por eso digo que paren al imparable que te fulmina
y si te pisa te aplasta
No puede parar, no puede parar
El gordo motoneta no puede parar
El gordo motoneta no puede parar (no puede parar, no puede parar)
Ratatin ratatin.... [rata] y ratatin ratatin [rata]
ratatin ratatin [rata] che ratatin ratatin [rata]




[El gordo motoneta acordes][El gordo motoneta cifra]
© LaCuerda.net · legal notice · privacy · es · en · pt · contact us
DINAMICO