Guitar Chords » B »BBS Paranóicos » Nostalgia (Tab)

Nostalgia
BBS Paranóicos

Lyrics, Chords & Tabs for Guitar, Bass & Ukulele

  • DO#                     MI
    ante tanta indiferencia
                  SI              DO#
    pierdo el control reviento mi voz,
                            MI
    ya no logro comprenderlo
                 SI
    siempre fue igual siempre fue igual, 
    SOL#          DO#         MI         SI    SI-SOL#
    no habra otra oportunidad para resistir.
    
    no me importa este momento
    prefiero olvidar dejar de soñar,
    la nostalgia me desgarra
    dejar de sangrar dejar de arrastrar,
    no habra otra oportunidad para detener.
    
    coro: 
    
    DO#       MI
    
  • BBS Paranoicos - Nostalgia
    Ahi ven ustedes los tiempos
    
    Versos [2 veses]
    e|---------------------|
    B|---------------------|
    G|--4-----7------------|
    D|--4-----7--7---------|
    A|--2-----5--7---------|
    E|-----------5---------|
    
    Versos...  [1 ves]
    e|---------------|------|
    B|---------------|------|
    G|------4----7---|------|
    D|---4--4----7-7-|-7--4-|
    A|---4--2----5-7-|-7--4-|
    E|---2---------5-|-5--2-|
    
    Versos [2 veses]
    e|---------------------|
    B|---------------------|
    G|--4-----7------------|
    D|--4-----7--7---------|
    A|--2-----5--7---------|
    E|-----------5---------|
    
    Versos...  [1 ves]
    e|---------------|
    B|---------------|
    G|------4----7---|
    D|---4--4----7-7-|
    A|---4--2----5-7-|
    E|---2---------5-|
    
    Coro...[4 veses]
    e|------------------|
    B|------------------|
    G|--4---7-----------|
    D|--4---7---7--4----|
    A|--2---5---7--4----|
    E|----------5--2----|
    
    [se toka 2 veses]
    e|---------------------------|-----|
    B|---------------------------|-----|
    G|-----777
  • +
    ¡Colabora con nosotros!
    Envíanos tu versión de esta canción

Nostalgia Lyrics
ante tanta indiferencia
pierdo el control reviento mi voz,
ya no logro comprenderlo
siempre fue igual siempre fue igual,
no habra otra oportunidad para resistir.
no me importa este momento
prefiero olvidar dejar de soñar,
la nostalgia me desgarra
dejar de sangrar dejar de arrastrar,
no habra otra oportunidad para detener.
puede ser puede ser
una sonrisa aplastada en el suelo,
puede ser puede ser
una vision otro engaño una farsa,
puede ser puede ser
un gusto amargo correr por tu boca,
puede ser puede ser
la realidad te golpea en la caraaa.
todo me resulta ajeno
todo me parece extraño
ya no puedo mantenerme asi.
la vista se me subla
la carne se adormece
la vida se em escapa.
todo me resulta ajeno
todo me parece extraño
ya no puedo mantenerme asi.
no podras escapar de mi voz ja mas,
SOL# (TOCANDO TODAS LAS CUERDAS)
no podras huir.
ESTA CANCION ES PA TODOS LOS QUE ME MANDARON MAIL PA PEDIRLA....
TAMBIEN TENGO HARTAS DE FUTURO INCIERTO PERO NO ME SE LA LETRA
ASI QUE CUANDO ME LA SEPA LES MANDO MAS CANCIONES.
CUALQUIER DUDA ESCRIBAN A MI MAIL.




[Nostalgia acordes][Nostalgia cifra]
© LaCuerda.net · legal notice · privacy · es · en · pt · contact us
DINAMICO