Guitar Chords » B »los Babasónicos » Un Flash (Tab)

Un Flash
los Babasónicos

Lyrics, Chords & Tabs for Guitar, Bass & Ukulele

  • SIm
    Como en un flash
    RE        MI      SOL
    Nadie nos mira al rededor
    SIm
    Una red en común
    RE         MI    SOL
    Conspiraba en la oscuridad
    SIm
    Sigilosa señal
    RE   MI          SOL
    la q nadie debía notar
    LA          RE
    Nos dejamos arrastrar
                 SOL
    Corriente abajo
         MI              SOL
    Hasta que el ruido nos tapo
           RE          MI         SOL
    Y dice yo te quiero conocer igual
    
  • e|-------------------------------------------------|
    B|-------------------------------------------------|
    G|-------------2-4-2-------------------------------|
    D|-------0h2-4-------0-0-2-2-0-0h2/4-2-0-----------|  x2
    A|---2-2---------------------------------2-0-2-----|
    E|-------------------------------------------------|
    
    
    SIm
    Como en un flash
    RE        MI      SOL
    Nadie nos mira al rededor
    SIm
    Una red en común
    RE         MI    SOL
    Conspiraba en la oscuridad
    SIm
    Sigilosa señal
    RE   MI          SOL
    la q nadie debía notar
    
  • e|-------------------------------------------------|
    B|-------------------------------------------------|
    G|-------------2-4-2-2/4/2-------------------------|
    D|-------0h2-4-------------4-0--2h4-2--------------|  x2
    A|---0-0-----------------------------4-2--0-0------|
    E|-------------------------------------------------|
    
    
    SIm
    Como en un flash
    RE        MI      SOL
    Nadie nos mira al rededor
    SIm
    Una red en común
    RE         MI    SOL
    Conspiraba en la oscuridad
    SIm
    Sigilosa señal
    RE   MI          SOL
    la q nadie debía notar
    
  • +
    ¡Colabora con nosotros!
    Envíanos tu versión de esta canción

Un Flash Lyrics
Como en un flash
Nadie nos mira al rededor
Una red en común
Conspiraba en la oscuridad
Sigilosa señal
la q nadie debía notar
Nos dejamos arrastrar
Corriente abajo
Hasta que el ruido nos tapo
Y dice yo te quiero conocer igual
No nos mira nadie despejemos el lugar
Un esclavo casual
La bañaba en su manantial
Como espada de luz
Mi presencia la hizo temblar
Bueno este tema se lo dedico a Anis
q es una fan de babasonicos y la quiero mucho
Aguante los babas!!!!




[Un Flash acordes][Un Flash cifra]
© LaCuerda.net · legal notice · privacy · es · en · pt · contact us
DINAMICO