Guitar Chords » A »Ases Falsos » Búscate un lugar para ensayar (Tab)

Búscate un lugar para ensayar
Ases Falsos

Lyrics, Chords & Tabs for Guitar, Bass & Ukulele

  •  DO#maj7    LA#m7   RE#m7   FA#m   FA#  SOL#7   FA#/SOL#
    
    e------4--------6--------6-------2-----2-----4-------2---
    B------6--------6--------7-------2-----2-----4-------2---
    G------5--------6--------6-------2-----3-----5-------3---
    D------6--------6--------8-------4-----4-----4-------4---
    A------4--------8--------6-------4-----4-----6-------X---
    E---------------6----------------2-----2-----4-------4---
    
    DO#maj7  LA#m7      RE#m7
    A)Dale, cámbiame la cara
    FA#m         DO#maj7      LA#m7
    no te tengas pena, ordena tus ideas
    RE#m7        FA#   FA#/SOL#  DO#maj7     LA#m7  SOL#7
    búscate un lugar para ensa - yar
    
    DO#maj7  LA#m7      RE#m7
    A)Confusión y rebeldía
    FA#m       DO#maj7    LA#m7
    pueden enredarse pero son distintas
    
  •     DO#   LA#m    RE#m    FA#    FA#m  FA#/G#  SOL#m  DO#M7
    e----4------6-------6------2-------2------2-----4-------4--
    B----6------6-------7------2-------2------2-----4-------6--
    G----6------6-------8------3-------2------3-----4-------5--
    D----6------8-------8------4-------4------4-----6-------6--
    A----4------8-------6------4-------4------2-----6-------4--
    E-----------6--------------2-------2------4-----4----------
    
    
     DO#   LA#m          RE#m
    Dale, cámbiame la cara
     FA#         DO#         LA#m
    no te tengas pena, ordena tus ideas
     RE#m        FA#     FA#/G#    DO#
    búscate un lugar para ensayar
    
    
    DO#m LA#m - RE#mm FA#m
    DO#m LA#m - RE#mm FA#-FA#/G#
    
    
  • +
    ¡Colabora con nosotros!
    Envíanos tu versión de esta canción

Búscate un lugar para ensayar Lyrics
Dale, cámbiame la cara
no te tengas pena, ordena tus ideas
búscate un lugar para ensayar
Confusión y rebeldía
pueden enre-darse pero son distintas
búscate un lugar para ensayar
Vamos habla fuerte y claro
pero cuídate de transformarte en un gritón
la fuerza de la idea no se mide en decibeles
la fuerza de la idea no depende de una masa
Pongo el caso de una marcha
nos conmueve la fiereza de cada canción
pero son frases hechas que se olvidan con facilidad
después de unas cervezas nadie sabe dónde quedó la rabia
Dale, cámbiame la cara
no te tengas pena, ordena tus ideas
búscate un lugar para ensayar
(Break)
Confusión y rebeldía
pueden enredarse pero son distintas
búscate un lugar para ensayar
¿Disconforme o aturdido?
examina el germen de tu disconformidad
¿será que estás luchando para el bando equivocado?
¿serás participante de peleas engañosas?
No te eches a morir
templa tu cabeza y no te eches a morir
pero si insistes en tirarte al suelo a darte color
descuéntale la agonía, muérete y despeja el paso
Dale, cámbiame la cara
no te tengas pena, ordena tus ideas
búscate un lugar para ensayar




[Búscate un lugar para ensayar acordes][Búscate un lugar para ensayar cifra]
© LaCuerda.net · legal notice · privacy · es · en · pt · contact us
DINAMICO