Guitar Chords » A »Armando Manzanero » Felicidad (Tab)

Felicidad
Armando Manzanero

Lyrics, Chords & Tabs for Guitar, Bass & Ukulele

  •     A                   D
    E-----------------------------------------------
    A-----------------------------------------------
    D-----------------------------------------------
    G---9------9-----------11-------11--------------
    B---10--10----10-------10---10-----10-----------
    e---9-------------9----10--------------10-------
    
    
    
        A                   D
    E-----------------------------------------------
    A-----------------------------------------------
    D-----------------------------------------------
    G---9------9-----------11-------11--------------
    B---10--10----10-------10---10-----10-----------
    e---9-------------9----10--------------10-------
    
    
       A                        E7                 A
    
  • +
    ¡Colabora con nosotros!
    Envíanos tu versión de esta canción

Felicidad Lyrics
Felicidad
hoy te vengo a encontrar
cuanto tiempo huiste de mi.
Felicidad
no te vuelvo a dejar
no podria vivir ya sin ti
Hoy amanece y el sol
tiene un raro esplendor
escucho a viento pasar
veo la luna brillar.
Al mismo cielo lo miro
con otro color,
nada es nuevo
felicidad, felicidad,




[Felicidad acordes][Felicidad cifra]
© LaCuerda.net · legal notice · privacy · es · en · pt · contact us
DINAMICO