Guitar Chords » A »Andrés Calamaro » Soy Tuyo (Tab)

Soy Tuyo
Andrés Calamaro

Lyrics, Chords & Tabs for Guitar, Bass & Ukulele

  • G                            D
    Me gusta desarmarme arriba tuyo
    
    SI7                      Em
    me gusta demasiado ensuciarte
    
    C                     G   A                      D
    besar tu flor, inmediata, besarte atrás y adelante.
    
    
    G                        D
    Me gusta tanto que me encante,
    
    SI7                    Em
    que quiero hasta la locura,
    
    C                                 G
    desarmarme en el vaivén de tu cintura,
    
    A                                      D
    
  • G                            D
    Me gusta desarmarme arriba tuyo
    
    B7                        Em
    me gusta demasiado ensuciarte
    
    C                     G   A7                    D
    besar tu flor, inmediata, besarte atrás y adelante.
    
    
    G                        D
    Me gusta tanto que me encante,
    
    B7                     Em
    que quiero hasta la locura,
    
    C                                 G
    desarmarme en el vaivén de tu cintura,
    
    A7                                   D
    
  • e-5h7---7h5---5--3s5--5s7-------------------------------e
    b-----------8-------------8-5---------------------------b
    g------------------------------4-4-4-4-7-4-5h4-4-2-0--0-g
    d-------------------------------------------------------d
    a-------------------------------------------------------a
    E-------------------------------------------------------E
    
    e------------------------------10s12--------------------e
    b---3-3h5-5-3-2----------------10s12--10s12s10----------b
    g-----------------2h4-2-2-------------9s11s9------------g
    d-------------------------------------------------------d
    a-------------------------------------------------------a
    E-------------------------------------------------------E
    
    
        G                       D/F#
    Me gusta desarmarme arriba tuyo
        B7                   Em
    Me gusta demasiado ensusiarte
       C               G
    
  • +
    ¡Colabora con nosotros!
    Envíanos tu versión de esta canción

Soy Tuyo Lyrics
Me gusta desarmarme arriba tuyo
me gusta demasiado ensuciarte
besar tu flor, inmediata, besarte atrás y adelante.
Me gusta tanto que me encante,
que quiero hasta la locura,
desarmarme en el vaivén de tu cintura,
y remar sobre tu espalda y naufragarte.
Soy tuyo, con mi mayor convicción,
soy tuyo con toda la fuerza de mi corazón,
que es tuyo, y como cada pensamiento mío,
es tuyo , soy tuyo.




[Soy Tuyo acordes][Soy Tuyo cifra]
© LaCuerda.net · legal notice · privacy · es · en · pt · contact us
DINAMICO