Guitar Chords » A »Andrés Calamaro » Loco (Tab)

Loco
Andrés Calamaro

Lyrics, Chords & Tabs for Guitar, Bass & Ukulele

  • e-----------------------------------------------------|
    B-----------------------------------------------------|
    G-----------------------------------------------------|
    D----------------------------0-0-0--------------------| x2
    A---------0-----------0-------------------------------|
    E-0-0-3-3-----0-0-3-3----2-3-------3-0----------------|
    
    Am                 D
    Voy a salir a caminar solito
        Bm                  Em
    sentarme en un parque a fumar un porrito
    Am               D
    y mirar a las palomas comer
       Bm                     Em
    el pan que la gente les tira
    
    
            Am                  D
    y reprimir el instinto asesino
                  Bm
    
  • Am                 
    Voy a salir a caminar solito
        Bm                  Em  
    sentarme en un parque a fumar un porrito 
    Am      
    y mirar a las palomas comer 
       Bm                     Em
    el pan que la gente les tira 
    
    
            Am                  D
    y reprimir el instinto asesino 
                  Bm 
    delante de un mimo o de un clown 
          Em                Am
    hoy estoy down violento down radical 
         D                  Bm                  Em
    pero tengo aprendido el papel principal 
    
    
    
  • Estoy 100% seguro de las notas, pero de cualquier manera
    tienen mi mail para puteadas, consejos, correciones,etc,etc,etc.
    
    
    
    
    SOLO
    
    
    (1:47)
    e-----------------------------------------------------|
    B-------8v------10/12-13-12---10h12-10vv---10h12------|
    G-7-7h9----9-------------------------------------12vv-|
    D-----------------------------------------------------|
    A-----------------------------------------------------|
    E-----------------------------------------------------|
    
    (1:56)
    e------7--10-8-7----7------------------------------|
    B----8----------------10---8-7---5h7p5--7vv-7/8----|
    G-/9---------------------------------------------9-|
    D--------------------------------------------------|
    A--------------------------------------------------|
    E--------------------------------------------------|
    
    (2:04)
    e-------------7---10---10/12-|-10-10b12-10vv---10b12-7-|
    B---------8-----8----8-------|-------------------------|
    G-7---9-7---9----------------|------------------
  • +
    ¡Colabora con nosotros!
    Envíanos tu versión de esta canción
  • Tutorial
    HD
    Loco - Andres Calamaro - Como tocar en guitarra
    4:21

Loco Lyrics
Voy a salir a caminar solito
sentarme en un parque a fumar un porrito
y mirar a las palomas comer
el pan que la gente les tira
y reprimir el instinto asesino
delante de un mimo o de un clown
hoy estoy down violento down radical
pero tengo aprendido el papel principal
ESTRIBILLO (igual a estrofa)
yo soy un loco que se dio cuenta
que el tiempo es muy poco
yo soy un loco que se dio cuenta
que el tiempo es muy poco
yo soy un loco que se dio cuenta
que el tiempo es muy poco




[Loco acordes][Loco cifra]
© LaCuerda.net · legal notice · privacy · es · en · pt · contact us
DINAMICO